  0
SECTION
  2
HEADER
  9
$ACADVER
  1
AC1027
  9
$ACADMAINTVER
 70
   105
  9
$DWGCODEPAGE
  3
ANSI_1252
  9
$LASTSAVEDBY
  1
cncke
  9
$REQUIREDVERSIONS
160
                 0
  9
$INSBASE
 10
0.0
 20
0.0
 30
0.0
  9
$EXTMIN
 10
54.48745388454861
 20
14.40738932291667
 30
0.0
  9
$EXTMAX
 10
65.958984375
 20
21.12567816840278
 30
0.0
  9
$LIMMIN
 10
0.0
 20
0.0
  9
$LIMMAX
 10
12.0
 20
9.0
  9
$ORTHOMODE
 70
     0
  9
$REGENMODE
 70
     1
  9
$FILLMODE
 70
     1
  9
$QTEXTMODE
 70
     0
  9
$MIRRTEXT
 70
     1
  9
$LTSCALE
 40
1.0
  9
$ATTMODE
 70
     1
  9
$TEXTSIZE
 40
0.2
  9
$TRACEWID
 40
0.05
  9
$TEXTSTYLE
  7
Standard
  9
$CLAYER
  8
0
  9
$CELTYPE
  6
ByLayer
  9
$CECOLOR
 62
   256
  9
$CELTSCALE
 40
1.0
  9
$DISPSILH
 70
     0
  9
$DIMSCALE
 40
1.0
  9
$DIMASZ
 40
0.18
  9
$DIMEXO
 40
0.0625
  9
$DIMDLI
 40
0.38
  9
$DIMRND
 40
0.0
  9
$DIMDLE
 40
0.0
  9
$DIMEXE
 40
0.18
  9
$DIMTP
 40
0.0
  9
$DIMTM
 40
0.0
  9
$DIMTXT
 40
0.18
  9
$DIMCEN
 40
0.09
  9
$DIMTSZ
 40
0.0
  9
$DIMTOL
 70
     0
  9
$DIMLIM
 70
     0
  9
$DIMTIH
 70
     1
  9
$DIMTOH
 70
     1
  9
$DIMSE1
 70
     0
  9
$DIMSE2
 70
     0
  9
$DIMTAD
 70
     0
  9
$DIMZIN
 70
     0
  9
$DIMBLK
  1

  9
$DIMASO
 70
     1
  9
$DIMSHO
 70
     1
  9
$DIMPOST
  1

  9
$DIMAPOST
  1

  9
$DIMALT
 70
     0
  9
$DIMALTD
 70
     2
  9
$DIMALTF
 40
25.4
  9
$DIMLFAC
 40
1.0
  9
$DIMTOFL
 70
     0
  9
$DIMTVP
 40
0.0
  9
$DIMTIX
 70
     0
  9
$DIMSOXD
 70
     0
  9
$DIMSAH
 70
     0
  9
$DIMBLK1
  1

  9
$DIMBLK2
  1

  9
$DIMSTYLE
  2
Standard
  9
$DIMCLRD
 70
     0
  9
$DIMCLRE
 70
     0
  9
$DIMCLRT
 70
     0
  9
$DIMTFAC
 40
1.0
  9
$DIMGAP
 40
0.09
  9
$DIMJUST
 70
     0
  9
$DIMSD1
 70
     0
  9
$DIMSD2
 70
     0
  9
$DIMTOLJ
 70
     1
  9
$DIMTZIN
 70
     0
  9
$DIMALTZ
 70
     0
  9
$DIMALTTZ
 70
     0
  9
$DIMUPT
 70
     0
  9
$DIMDEC
 70
     4
  9
$DIMTDEC
 70
     4
  9
$DIMALTU
 70
     2
  9
$DIMALTTD
 70
     2
  9
$DIMTXSTY
  7
Standard
  9
$DIMAUNIT
 70
     0
  9
$DIMADEC
 70
     0
  9
$DIMALTRND
 40
0.0
  9
$DIMAZIN
 70
     0
  9
$DIMDSEP
 70
    46
  9
$DIMATFIT
 70
     3
  9
$DIMFRAC
 70
     0
  9
$DIMLDRBLK
  1

  9
$DIMLUNIT
 70
     2
  9
$DIMLWD
 70
    -2
  9
$DIMLWE
 70
    -2
  9
$DIMTMOVE
 70
     0
  9
$DIMFXL
 40
1.0
  9
$DIMFXLON
 70
     0
  9
$DIMJOGANG
 40
0.7853981633974483
  9
$DIMTFILL
 70
     0
  9
$DIMTFILLCLR
 70
     0
  9
$DIMARCSYM
 70
     0
  9
$DIMLTYPE
  6

  9
$DIMLTEX1
  6

  9
$DIMLTEX2
  6

  9
$DIMTXTDIRECTION
 70
     0
  9
$LUNITS
 70
     2
  9
$LUPREC
 70
     4
  9
$SKETCHINC
 40
0.1
  9
$FILLETRAD
 40
0.5
  9
$AUNITS
 70
     0
  9
$AUPREC
 70
     0
  9
$MENU
  1
.
  9
$ELEVATION
 40
0.0
  9
$PELEVATION
 40
0.0
  9
$THICKNESS
 40
0.0
  9
$LIMCHECK
 70
     0
  9
$CHAMFERA
 40
0.5
  9
$CHAMFERB
 40
0.5
  9
$CHAMFERC
 40
1.0
  9
$CHAMFERD
 40
0.0
  9
$SKPOLY
 70
     0
  9
$TDCREATE
 40
2459915.641372419
  9
$TDUCREATE
 40
2459915.849705752
  9
$TDUPDATE
 40
2459915.641372824
  9
$TDUUPDATE
 40
2459915.849706158
  9
$TDINDWG
 40
0.0000000116
  9
$TDUSRTIMER
 40
0.0000000116
  9
$USRTIMER
 70
     1
  9
$ANGBASE
 50
0.0
  9
$ANGDIR
 70
     0
  9
$PDMODE
 70
     0
  9
$PDSIZE
 40
0.0
  9
$PLINEWID
 40
0.0
  9
$SPLFRAME
 70
     0
  9
$SPLINETYPE
 70
     6
  9
$SPLINESEGS
 70
     8
  9
$HANDSEED
  5
1E5
  9
$SURFTAB1
 70
     6
  9
$SURFTAB2
 70
     6
  9
$SURFTYPE
 70
     6
  9
$SURFU
 70
     6
  9
$SURFV
 70
     6
  9
$UCSBASE
  2

  9
$UCSNAME
  2

  9
$UCSORG
 10
0.0
 20
0.0
 30
0.0
  9
$UCSXDIR
 10
1.0
 20
0.0
 30
0.0
  9
$UCSYDIR
 10
0.0
 20
1.0
 30
0.0
  9
$UCSORTHOREF
  2

  9
$UCSORTHOVIEW
 70
     0
  9
$UCSORGTOP
 10
0.0
 20
0.0
 30
0.0
  9
$UCSORGBOTTOM
 10
0.0
 20
0.0
 30
0.0
  9
$UCSORGLEFT
 10
0.0
 20
0.0
 30
0.0
  9
$UCSORGRIGHT
 10
0.0
 20
0.0
 30
0.0
  9
$UCSORGFRONT
 10
0.0
 20
0.0
 30
0.0
  9
$UCSORGBACK
 10
0.0
 20
0.0
 30
0.0
  9
$PUCSBASE
  2

  9
$PUCSNAME
  2

  9
$PUCSORG
 10
0.0
 20
0.0
 30
0.0
  9
$PUCSXDIR
 10
1.0
 20
0.0
 30
0.0
  9
$PUCSYDIR
 10
0.0
 20
1.0
 30
0.0
  9
$PUCSORTHOREF
  2

  9
$PUCSORTHOVIEW
 70
     0
  9
$PUCSORGTOP
 10
0.0
 20
0.0
 30
0.0
  9
$PUCSORGBOTTOM
 10
0.0
 20
0.0
 30
0.0
  9
$PUCSORGLEFT
 10
0.0
 20
0.0
 30
0.0
  9
$PUCSORGRIGHT
 10
0.0
 20
0.0
 30
0.0
  9
$PUCSORGFRONT
 10
0.0
 20
0.0
 30
0.0
  9
$PUCSORGBACK
 10
0.0
 20
0.0
 30
0.0
  9
$USERI1
 70
     0
  9
$USERI2
 70
     0
  9
$USERI3
 70
     0
  9
$USERI4
 70
     0
  9
$USERI5
 70
     0
  9
$USERR1
 40
0.0
  9
$USERR2
 40
0.0
  9
$USERR3
 40
0.0
  9
$USERR4
 40
0.0
  9
$USERR5
 40
0.0
  9
$WORLDVIEW
 70
     1
  9
$SHADEDGE
 70
     3
  9
$SHADEDIF
 70
    70
  9
$TILEMODE
 70
     1
  9
$MAXACTVP
 70
    64
  9
$PINSBASE
 10
0.0
 20
0.0
 30
0.0
  9
$PLIMCHECK
 70
     0
  9
$PEXTMIN
 10
0.0
 20
0.0
 30
0.0
  9
$PEXTMAX
 10
0.0
 20
0.0
 30
0.0
  9
$PLIMMIN
 10
-0.25
 20
-0.25
  9
$PLIMMAX
 10
10.75
 20
8.25
  9
$UNITMODE
 70
     0
  9
$VISRETAIN
 70
     1
  9
$PLINEGEN
 70
     0
  9
$PSLTSCALE
 70
     1
  9
$TREEDEPTH
 70
  3020
  9
$CMLSTYLE
  2
Standard
  9
$CMLJUST
 70
     0
  9
$CMLSCALE
 40
1.0
  9
$PROXYGRAPHICS
 70
     1
  9
$MEASUREMENT
 70
     0
  9
$CELWEIGHT
370
    -1
  9
$ENDCAPS
280
     0
  9
$JOINSTYLE
280
     0
  9
$LWDISPLAY
290
     0
  9
$INSUNITS
 70
     1
  9
$HYPERLINKBASE
  1

  9
$STYLESHEET
  1

  9
$XEDIT
290
     1
  9
$CEPSNTYPE
380
     0
  9
$PSTYLEMODE
290
     1
  9
$FINGERPRINTGUID
  2
{e8106c72-54d4-4e1f-8c58-201e4d8ef4c6}
  9
$VERSIONGUID
  2
{FAEB1C32-E019-11D5-929B-00C0DF256EC4}
  9
$EXTNAMES
290
     1
  9
$PSVPSCALE
 40
0.0
  9
$OLESTARTUP
290
     0
  9
$SORTENTS
280
   127
  9
$INDEXCTL
280
     0
  9
$HIDETEXT
280
     1
  9
$XCLIPFRAME
280
     2
  9
$HALOGAP
280
     0
  9
$OBSCOLOR
 70
   257
  9
$OBSLTYPE
280
     0
  9
$INTERSECTIONDISPLAY
280
     0
  9
$INTERSECTIONCOLOR
 70
   257
  9
$DIMASSOC
280
     2
  9
$PROJECTNAME
  1

  9
$CAMERADISPLAY
290
     0
  9
$LENSLENGTH
 40
50.0
  9
$CAMERAHEIGHT
 40
0.0
  9
$STEPSPERSEC
 40
2.0
  9
$STEPSIZE
 40
6.0
  9
$3DDWFPREC
 40
2.0
  9
$PSOLWIDTH
 40
0.25
  9
$PSOLHEIGHT
 40
4.0
  9
$LOFTANG1
 40
1.570796326794897
  9
$LOFTANG2
 40
1.570796326794897
  9
$LOFTMAG1
 40
0.0
  9
$LOFTMAG2
 40
0.0
  9
$LOFTPARAM
 70
     7
  9
$LOFTNORMALS
280
     1
  9
$LATITUDE
 40
37.795
  9
$LONGITUDE
 40
-122.394
  9
$NORTHDIRECTION
 40
0.0
  9
$TIMEZONE
 70
 -8000
  9
$LIGHTGLYPHDISPLAY
280
     1
  9
$TILEMODELIGHTSYNCH
280
     1
  9
$CMATERIAL
347
138
  9
$SOLIDHIST
280
     0
  9
$SHOWHIST
280
     1
  9
$DWFFRAME
280
     2
  9
$DGNFRAME
280
     2
  9
$REALWORLDSCALE
290
     1
  9
$INTERFERECOLOR
 62
   256
  9
$CSHADOW
280
     0
  9
$SHADOWPLANELOCATION
 40
0.0
  0
ENDSEC
  0
SECTION
  2
CLASSES
  0
CLASS
  1
ACDBDICTIONARYWDFLT
  2
AcDbDictionaryWithDefault
  3
ObjectDBX Classes
 90
        0
 91
        3
280
     0
281
     0
  0
CLASS
  1
VISUALSTYLE
  2
AcDbVisualStyle
  3
ObjectDBX Classes
 90
     4095
 91
        3
280
     0
281
     0
  0
CLASS
  1
MATERIAL
  2
AcDbMaterial
  3
ObjectDBX Classes
 90
     1153
 91
        3
280
     0
281
     0
  0
CLASS
  1
SCALE
  2
AcDbScale
  3
ObjectDBX Classes
 90
     1153
 91
        3
280
     0
281
     0
  0
CLASS
  1
TABLESTYLE
  2
AcDbTableStyle
  3
ObjectDBX Classes
 90
     4095
 91
        3
280
     0
281
     0
  0
CLASS
  1
MLEADERSTYLE
  2
AcDbMLeaderStyle
  3
ACDB_MLEADERSTYLE_CLASS
 90
     4095
 91
        3
280
     0
281
     0
  0
CLASS
  1
SUN
  2
AcDbSun
  3
SCENEOE
 90
     1153
 91
        3
280
     0
281
     0
  0
CLASS
  1
DICTIONARYVAR
  2
AcDbDictionaryVar
  3
ObjectDBX Classes
 90
        0
 91
        3
280
     0
281
     0
  0
CLASS
  1
CELLSTYLEMAP
  2
AcDbCellStyleMap
  3
ObjectDBX Classes
 90
     1152
 91
        3
280
     0
281
     0
  0
ENDSEC
  0
SECTION
  2
TABLES
  0
TABLE
  2
VPORT
  5
FD
330
0
100
AcDbSymbolTable
 70
     1
  0
VPORT
  5
11D
330
FD
100
AcDbSymbolTableRecord
100
AcDbViewportTableRecord
  2
*Active
 70
     0
 10
0.0
 20
0.0
 11
1.0
 21
1.0
 12
62.03913430006381
 22
17.7057782195162
 13
0.0
 23
0.0
 14
0.5
 24
0.5
 15
0.5
 25
0.5
 16
0.0
 26
0.0
 36
1.0
 17
0.0
 27
0.0
 37
0.0
 40
12.43418592194312
 41
1.938144329896907
 42
50.0
 43
0.0
 44
0.0
 50
0.0
 51
0.0
 71
     0
 72
   100
 73
     1
 74
     3
 75
     0
 76
     0
 77
     0
 78
     0
281
     0
 65
     1
110
0.0
120
0.0
130
0.0
111
1.0
121
0.0
131
0.0
112
0.0
122
1.0
132
0.0
 79
     0
146
0.0
348
123
 60
     3
 61
     5
292
     1
282
     1
141
0.0
142
0.0
 63
   250
361
151
  0
ENDTAB
  0
TABLE
  2
LTYPE
  5
FA
330
0
100
AcDbSymbolTable
 70
    48
  0
LTYPE
  5
108
330
FA
100
AcDbSymbolTableRecord
100
AcDbLinetypeTableRecord
  2
ByBlock
 70
     0
  3

 72
    65
 73
     0
 40
0.0
  0
LTYPE
  5
109
330
FA
100
AcDbSymbolTableRecord
100
AcDbLinetypeTableRecord
  2
ByLayer
 70
     0
  3

 72
    65
 73
     0
 40
0.0
  0
LTYPE
  5
10A
330
FA
100
AcDbSymbolTableRecord
100
AcDbLinetypeTableRecord
  2
Continuous
 70
     0
  3
Solid line
 72
    65
 73
     0
 40
0.0
  0
LTYPE
  5
18C
330
FA
100
AcDbSymbolTableRecord
100
AcDbLinetypeTableRecord
  2
ACAD_ISO10W100
 70
     0
  3
ISO dash dot __ . __ . __ . __ . __ . __ . __ . 
 72
    65
 73
     4
 40
18.0
 49
12.0
 74
     0
 49
-3.0
 74
     0
 49
0.0
 74
     0
 49
-3.0
 74
     0
  0
LTYPE
  5
18D
330
FA
100
AcDbSymbolTableRecord
100
AcDbLinetypeTableRecord
  2
ACAD_ISO11W100
 70
     0
  3
ISO double-dash dot __ __ . __ __ . __ __ . __ _
 72
    65
 73
     6
 40
33.0
 49
12.0
 74
     0
 49
-3.0
 74
     0
 49
12.0
 74
     0
 49
-3.0
 74
     0
 49
0.0
 74
     0
 49
-3.0
 74
     0
  0
LTYPE
  5
18E
330
FA
100
AcDbSymbolTableRecord
100
AcDbLinetypeTableRecord
  2
ACAD_ISO12W100
 70
     0
  3
ISO dash double-dot __ . . __ . . __ . . __ . . 
 72
    65
 73
     6
 40
21.0
 49
12.0
 74
     0
 49
-3.0
 74
     0
 49
0.0
 74
     0
 49
-3.0
 74
     0
 49
0.0
 74
     0
 49
-3.0
 74
     0
  0
LTYPE
  5
18F
330
FA
100
AcDbSymbolTableRecord
100
AcDbLinetypeTableRecord
  2
ACAD_ISO13W100
 70
     0
  3
ISO double-dash double-dot __ __ . . __ __ . . _
 72
    65
 73
     8
 40
36.0
 49
12.0
 74
     0
 49
-3.0
 74
     0
 49
12.0
 74
     0
 49
-3.0
 74
     0
 49
0.0
 74
     0
 49
-3.0
 74
     0
 49
0.0
 74
     0
 49
-3.0
 74
     0
  0
LTYPE
  5
190
330
FA
100
AcDbSymbolTableRecord
100
AcDbLinetypeTableRecord
  2
ACAD_ISO14W100
 70
     0
  3
ISO dash triple-dot __ . . . __ . . . __ . . . _
 72
    65
 73
     8
 40
24.0
 49
12.0
 74
     0
 49
-3.0
 74
     0
 49
0.0
 74
     0
 49
-3.0
 74
     0
 49
0.0
 74
     0
 49
-3.0
 74
     0
 49
0.0
 74
     0
 49
-3.0
 74
     0
  0
LTYPE
  5
191
330
FA
100
AcDbSymbolTableRecord
100
AcDbLinetypeTableRecord
  2
ACAD_ISO15W100
 70
     0
  3
ISO double-dash triple-dot __ __ . . . __ __ . .
 72
    65
 73
    10
 40
39.0
 49
12.0
 74
     0
 49
-3.0
 74
     0
 49
12.0
 74
     0
 49
-3.0
 74
     0
 49
0.0
 74
     0
 49
-3.0
 74
     0
 49
0.0
 74
     0
 49
-3.0
 74
     0
 49
0.0
 74
     0
 49
-3.0
 74
     0
  0
LTYPE
  5
193
330
FA
100
AcDbSymbolTableRecord
100
AcDbLinetypeTableRecord
  2
BATTING
 70
     0
  3
Batting SSSSSSSSSSSSSSSSSSSSSSSSSSSSSSSSSSSSSSSSSSSSSSS
 72
    65
 73
     4
 40
0.4001
 49
0.0001
 74
     0
 49
-0.1
 74
     2
 75
     0
340
192
 46
0.1
 50
0.0
 44
-0.1
 45
0.0
  9
BAT
 49
-0.2
 74
     2
 75
     0
340
192
 46
0.1
 50
180.0
 44
0.1
 45
0.0
  9
BAT
 49
-0.1
 74
     0
  0
LTYPE
  5
194
330
FA
100
AcDbSymbolTableRecord
100
AcDbLinetypeTableRecord
  2
BORDER
 70
     0
  3
Border __ __ . __ __ . __ __ . __ __ . __ __ .
 72
    65
 73
     6
 40
1.75
 49
0.5
 74
     0
 49
-0.25
 74
     0
 49
0.5
 74
     0
 49
-0.25
 74
     0
 49
0.0
 74
     0
 49
-0.25
 74
     0
  0
LTYPE
  5
195
330
FA
100
AcDbSymbolTableRecord
100
AcDbLinetypeTableRecord
  2
BORDER2
 70
     0
  3
Border (.5x) __.__.__.__.__.__.__.__.__.__.__.
 72
    65
 73
     6
 40
0.875
 49
0.25
 74
     0
 49
-0.125
 74
     0
 49
0.25
 74
     0
 49
-0.125
 74
     0
 49
0.0
 74
     0
 49
-0.125
 74
     0
  0
LTYPE
  5
196
330
FA
100
AcDbSymbolTableRecord
100
AcDbLinetypeTableRecord
  2
BORDERX2
 70
     0
  3
Border (2x) ____  ____  .  ____  ____  .  ___
 72
    65
 73
     6
 40
3.5
 49
1.0
 74
     0
 49
-0.5
 74
     0
 49
1.0
 74
     0
 49
-0.5
 74
     0
 49
0.0
 74
     0
 49
-0.5
 74
     0
  0
LTYPE
  5
197
330
FA
100
AcDbSymbolTableRecord
100
AcDbLinetypeTableRecord
  2
CENTER
 70
     0
  3
Center ____ _ ____ _ ____ _ ____ _ ____ _ ____
 72
    65
 73
     4
 40
2.0
 49
1.25
 74
     0
 49
-0.25
 74
     0
 49
0.25
 74
     0
 49
-0.25
 74
     0
  0
LTYPE
  5
198
330
FA
100
AcDbSymbolTableRecord
100
AcDbLinetypeTableRecord
  2
CENTER2
 70
     0
  3
Center (.5x) ___ _ ___ _ ___ _ ___ _ ___ _ ___
 72
    65
 73
     4
 40
1.125
 49
0.75
 74
     0
 49
-0.125
 74
     0
 49
0.125
 74
     0
 49
-0.125
 74
     0
  0
LTYPE
  5
199
330
FA
100
AcDbSymbolTableRecord
100
AcDbLinetypeTableRecord
  2
CENTERX2
 70
     0
  3
Center (2x) ________  __  ________  __  _____
 72
    65
 73
     4
 40
4.0
 49
2.5
 74
     0
 49
-0.5
 74
     0
 49
0.5
 74
     0
 49
-0.5
 74
     0
  0
LTYPE
  5
19A
330
FA
100
AcDbSymbolTableRecord
100
AcDbLinetypeTableRecord
  2
DASHDOT
 70
     0
  3
Dash dot __ . __ . __ . __ . __ . __ . __ . __
 72
    65
 73
     4
 40
1.0
 49
0.5
 74
     0
 49
-0.25
 74
     0
 49
0.0
 74
     0
 49
-0.25
 74
     0
  0
LTYPE
  5
19B
330
FA
100
AcDbSymbolTableRecord
100
AcDbLinetypeTableRecord
  2
DASHDOT2
 70
     0
  3
Dash dot (.5x) _._._._._._._._._._._._._._._.
 72
    65
 73
     4
 40
0.5
 49
0.25
 74
     0
 49
-0.125
 74
     0
 49
0.0
 74
     0
 49
-0.125
 74
     0
  0
LTYPE
  5
19C
330
FA
100
AcDbSymbolTableRecord
100
AcDbLinetypeTableRecord
  2
DASHDOTX2
 70
     0
  3
Dash dot (2x) ____  .  ____  .  ____  .  ___
 72
    65
 73
     4
 40
2.0
 49
1.0
 74
     0
 49
-0.5
 74
     0
 49
0.0
 74
     0
 49
-0.5
 74
     0
  0
LTYPE
  5
19D
330
FA
100
AcDbSymbolTableRecord
100
AcDbLinetypeTableRecord
  2
ACAD_ISO02W100
 70
     0
  3
ISO dash __ __ __ __ __ __ __ __ __ __ __ __ __
 72
    65
 73
     2
 40
15.0
 49
12.0
 74
     0
 49
-3.0
 74
     0
  0
LTYPE
  5
19E
330
FA
100
AcDbSymbolTableRecord
100
AcDbLinetypeTableRecord
  2
ACAD_ISO03W100
 70
     0
  3
ISO dash space __    __    __    __    __    __
 72
    65
 73
     2
 40
30.0
 49
12.0
 74
     0
 49
-18.0
 74
     0
  0
LTYPE
  5
19F
330
FA
100
AcDbSymbolTableRecord
100
AcDbLinetypeTableRecord
  2
ACAD_ISO04W100
 70
     0
  3
ISO long-dash dot ____ . ____ . ____ . ____ . _
 72
    65
 73
     4
 40
30.0
 49
24.0
 74
     0
 49
-3.0
 74
     0
 49
0.0
 74
     0
 49
-3.0
 74
     0
  0
LTYPE
  5
1A0
330
FA
100
AcDbSymbolTableRecord
100
AcDbLinetypeTableRecord
  2
ACAD_ISO05W100
 70
     0
  3
ISO long-dash double-dot ____ .. ____ .. ____ . 
 72
    65
 73
     6
 40
33.0
 49
24.0
 74
     0
 49
-3.0
 74
     0
 49
0.0
 74
     0
 49
-3.0
 74
     0
 49
0.0
 74
     0
 49
-3.0
 74
     0
  0
LTYPE
  5
1A1
330
FA
100
AcDbSymbolTableRecord
100
AcDbLinetypeTableRecord
  2
ACAD_ISO06W100
 70
     0
  3
ISO long-dash triple-dot ____ ... ____ ... ____
 72
    65
 73
     8
 40
36.0
 49
24.0
 74
     0
 49
-3.0
 74
     0
 49
0.0
 74
     0
 49
-3.0
 74
     0
 49
0.0
 74
     0
 49
-3.0
 74
     0
 49
0.0
 74
     0
 49
-3.0
 74
     0
  0
LTYPE
  5
1A2
330
FA
100
AcDbSymbolTableRecord
100
AcDbLinetypeTableRecord
  2
ACAD_ISO07W100
 70
     0
  3
ISO dot . . . . . . . . . . . . . . . . . . . . 
 72
    65
 73
     2
 40
3.0
 49
0.0
 74
     0
 49
-3.0
 74
     0
  0
LTYPE
  5
1A3
330
FA
100
AcDbSymbolTableRecord
100
AcDbLinetypeTableRecord
  2
ACAD_ISO08W100
 70
     0
  3
ISO long-dash short-dash ____ __ ____ __ ____ _
 72
    65
 73
     4
 40
36.0
 49
24.0
 74
     0
 49
-3.0
 74
     0
 49
6.0
 74
     0
 49
-3.0
 74
     0
  0
LTYPE
  5
1A4
330
FA
100
AcDbSymbolTableRecord
100
AcDbLinetypeTableRecord
  2
ACAD_ISO09W100
 70
     0
  3
ISO long-dash double-short-dash ____ __ __ ____
 72
    65
 73
     6
 40
45.0
 49
24.0
 74
     0
 49
-3.0
 74
     0
 49
6.0
 74
     0
 49
-3.0
 74
     0
 49
6.0
 74
     0
 49
-3.0
 74
     0
  0
LTYPE
  5
1A5
330
FA
100
AcDbSymbolTableRecord
100
AcDbLinetypeTableRecord
  2
HIDDENX2
 70
     0
  3
Hidden (2x) ____ ____ ____ ____ ____ ____ ____ 
 72
    65
 73
     2
 40
0.75
 49
0.5
 74
     0
 49
-0.25
 74
     0
  0
LTYPE
  5
1A7
330
FA
100
AcDbSymbolTableRecord
100
AcDbLinetypeTableRecord
  2
HOT_WATER_SUPPLY
 70
     0
  3
Hot water supply ---- HW ---- HW ---- HW ----
 72
    65
 73
     3
 40
0.8999999999999999
 49
0.5
 74
     0
 49
-0.2
 74
     2
 75
     0
340
1A6
 46
0.1
 50
0.0
 44
-0.1
 45
-0.05
  9
HW
 49
-0.2
 74
     0
  0
LTYPE
  5
1A8
330
FA
100
AcDbSymbolTableRecord
100
AcDbLinetypeTableRecord
  2
PHANTOM
 70
     0
  3
Phantom ______  __  __  ______  __  __  ______ 
 72
    65
 73
     6
 40
2.5
 49
1.25
 74
     0
 49
-0.25
 74
     0
 49
0.25
 74
     0
 49
-0.25
 74
     0
 49
0.25
 74
     0
 49
-0.25
 74
     0
  0
LTYPE
  5
1A9
330
FA
100
AcDbSymbolTableRecord
100
AcDbLinetypeTableRecord
  2
PHANTOM2
 70
     0
  3
Phantom (.5x) ___ _ _ ___ _ _ ___ _ _ ___ _ _
 72
    65
 73
     6
 40
1.25
 49
0.625
 74
     0
 49
-0.125
 74
     0
 49
0.125
 74
     0
 49
-0.125
 74
     0
 49
0.125
 74
     0
 49
-0.125
 74
     0
  0
LTYPE
  5
1AA
330
FA
100
AcDbSymbolTableRecord
100
AcDbLinetypeTableRecord
  2
PHANTOMX2
 70
     0
  3
Phantom (2x) ____________    ____    ____   _
 72
    65
 73
     6
 40
5.0
 49
2.5
 74
     0
 49
-0.5
 74
     0
 49
0.5
 74
     0
 49
-0.5
 74
     0
 49
0.5
 74
     0
 49
-0.5
 74
     0
  0
LTYPE
  5
1AB
330
FA
100
AcDbSymbolTableRecord
100
AcDbLinetypeTableRecord
  2
TRACKS
 70
     0
  3
Tracks -|-|-|-|-|-|-|-|-|-|-|-|-|-|-|-|-|-|-|-|-|-|-|-|-
 72
    65
 73
     2
 40
0.3
 49
0.15
 74
     2
 75
     0
340
192
 46
0.25
 50
0.0
 44
0.0
 45
0.0
  9
TRACK1
 49
0.15
 74
     0
  0
LTYPE
  5
1AC
330
FA
100
AcDbSymbolTableRecord
100
AcDbLinetypeTableRecord
  2
ZIGZAG
 70
     0
  3
Zig zag /\/\/\/\/\/\/\/\/\/\/\/\/\/\/\/\/\/\/\/\/\/\/\/
 72
    65
 73
     4
 40
0.8001
 49
0.0001
 74
     0
 49
-0.2
 74
     2
 75
     0
340
192
 46
0.2
 50
0.0
 44
-0.2
 45
0.0
  9
ZIG
 49
-0.4
 74
     2
 75
     0
340
192
 46
0.2
 50
180.0
 44
0.2
 45
0.0
  9
ZIG
 49
-0.2
 74
     0
  0
LTYPE
  5
1AD
330
FA
100
AcDbSymbolTableRecord
100
AcDbLinetypeTableRecord
  2
DASHED
 70
     0
  3
Dashed __ __ __ __ __ __ __ __ __ __ __ __ __ _
 72
    65
 73
     2
 40
0.75
 49
0.5
 74
     0
 49
-0.25
 74
     0
  0
LTYPE
  5
1AE
330
FA
100
AcDbSymbolTableRecord
100
AcDbLinetypeTableRecord
  2
DASHED2
 70
     0
  3
Dashed (.5x) _ _ _ _ _ _ _ _ _ _ _ _ _ _ _ _ _ 
 72
    65
 73
     2
 40
0.375
 49
0.25
 74
     0
 49
-0.125
 74
     0
  0
LTYPE
  5
1AF
330
FA
100
AcDbSymbolTableRecord
100
AcDbLinetypeTableRecord
  2
DASHEDX2
 70
     0
  3
Dashed (2x) ____  ____  ____  ____  ____  ___
 72
    65
 73
     2
 40
1.5
 49
1.0
 74
     0
 49
-0.5
 74
     0
  0
LTYPE
  5
1B0
330
FA
100
AcDbSymbolTableRecord
100
AcDbLinetypeTableRecord
  2
DIVIDE
 70
     0
  3
Divide ____ . . ____ . . ____ . . ____ . . ____
 72
    65
 73
     6
 40
1.25
 49
0.5
 74
     0
 49
-0.25
 74
     0
 49
0.0
 74
     0
 49
-0.25
 74
     0
 49
0.0
 74
     0
 49
-0.25
 74
     0
  0
LTYPE
  5
1B1
330
FA
100
AcDbSymbolTableRecord
100
AcDbLinetypeTableRecord
  2
DIVIDE2
 70
     0
  3
Divide (.5x) __..__..__..__..__..__..__..__.._
 72
    65
 73
     6
 40
0.625
 49
0.25
 74
     0
 49
-0.125
 74
     0
 49
0.0
 74
     0
 49
-0.125
 74
     0
 49
0.0
 74
     0
 49
-0.125
 74
     0
  0
LTYPE
  5
1B2
330
FA
100
AcDbSymbolTableRecord
100
AcDbLinetypeTableRecord
  2
DIVIDEX2
 70
     0
  3
Divide (2x) ________  .  .  ________  .  .  _
 72
    65
 73
     6
 40
2.5
 49
1.0
 74
     0
 49
-0.5
 74
     0
 49
0.0
 74
     0
 49
-0.5
 74
     0
 49
0.0
 74
     0
 49
-0.5
 74
     0
  0
LTYPE
  5
1B3
330
FA
100
AcDbSymbolTableRecord
100
AcDbLinetypeTableRecord
  2
DOT
 70
     0
  3
Dot . . . . . . . . . . . . . . . . . . . . . . . .
 72
    65
 73
     2
 40
0.25
 49
0.0
 74
     0
 49
-0.25
 74
     0
  0
LTYPE
  5
1B4
330
FA
100
AcDbSymbolTableRecord
100
AcDbLinetypeTableRecord
  2
DOT2
 70
     0
  3
Dot (.5x) ........................................
 72
    65
 73
     2
 40
0.125
 49
0.0
 74
     0
 49
-0.125
 74
     0
  0
LTYPE
  5
1B5
330
FA
100
AcDbSymbolTableRecord
100
AcDbLinetypeTableRecord
  2
DOTX2
 70
     0
  3
Dot (2x) .  .  .  .  .  .  .  .  .  .  .  .  .  .
 72
    65
 73
     2
 40
0.5
 49
0.0
 74
     0
 49
-0.5
 74
     0
  0
LTYPE
  5
1B7
330
FA
100
AcDbSymbolTableRecord
100
AcDbLinetypeTableRecord
  2
DRAINAGE
 70
     0
  3
Drainage ---->---->---->----
 72
    65
 73
     2
 40
0.4
 49
0.2
 74
     2
 75
     0
340
1B6
 46
0.2
 50
180.0
 44
0.0
 45
0.0
  9
RIGHT_ARROW
 49
0.2
 74
     0
  0
LTYPE
  5
1B8
330
FA
100
AcDbSymbolTableRecord
100
AcDbLinetypeTableRecord
  2
DRAINAGE2
 70
     0
  3
Drainage reversed ----<----<----<----
 72
    65
 73
     2
 40
0.4
 49
0.2
 74
     2
 75
     0
340
1B6
 46
0.2
 50
0.0
 44
0.0
 45
0.0
  9
RIGHT_ARROW
 49
0.2
 74
     0
  0
LTYPE
  5
1B9
330
FA
100
AcDbSymbolTableRecord
100
AcDbLinetypeTableRecord
  2
FENCELINE1
 70
     0
  3
Fenceline circle ----0-----0----0-----0----0-----0--
 72
    65
 73
     4
 40
1.45
 49
0.25
 74
     0
 49
-0.1
 74
     2
 75
     0
340
192
 46
0.1
 50
0.0
 44
-0.1
 45
0.0
  9
CIRC1
 49
-0.1
 74
     0
 49
1.0
 74
     0
  0
LTYPE
  5
1BA
330
FA
100
AcDbSymbolTableRecord
100
AcDbLinetypeTableRecord
  2
FENCELINE2
 70
     0
  3
Fenceline square ----[]-----[]----[]-----[]----[]---
 72
    65
 73
     4
 40
1.45
 49
0.25
 74
     0
 49
-0.1
 74
     2
 75
     0
340
192
 46
0.1
 50
0.0
 44
-0.1
 45
0.0
  9
BOX
 49
-0.1
 74
     0
 49
1.0
 74
     0
  0
LTYPE
  5
1BB
330
FA
100
AcDbSymbolTableRecord
100
AcDbLinetypeTableRecord
  2
GAS_LINE
 70
     0
  3
Gas line ----GAS----GAS----GAS----GAS----GAS----GAS--
 72
    65
 73
     3
 40
0.95
 49
0.5
 74
     0
 49
-0.2
 74
     2
 75
     0
340
1A6
 46
0.1
 50
0.0
 44
-0.1
 45
-0.05
  9
GAS
 49
-0.25
 74
     0
  0
LTYPE
  5
1BC
330
FA
100
AcDbSymbolTableRecord
100
AcDbLinetypeTableRecord
  2
HIDDEN
 70
     0
  3
Hidden __ __ __ __ __ __ __ __ __ __ __ __ __ __
 72
    65
 73
     2
 40
0.375
 49
0.25
 74
     0
 49
-0.125
 74
     0
  0
LTYPE
  5
1BD
330
FA
100
AcDbSymbolTableRecord
100
AcDbLinetypeTableRecord
  2
HIDDEN2
 70
     0
  3
Hidden (.5x) _ _ _ _ _ _ _ _ _ _ _ _ _ _ _ _ _ 
 72
    65
 73
     2
 40
0.1875
 49
0.125
 74
     0
 49
-0.0625
 74
     0
  0
ENDTAB
  0
TABLE
  2
LAYER
  5
F8
330
0
100
AcDbSymbolTable
 70
     2
  0
LAYER
  5
105
330
F8
100
AcDbSymbolTableRecord
100
AcDbLayerTableRecord
  2
0
 70
     0
 62
     7
  6
Continuous
370
    -3
390
104
347
13A
348
0
  0
LAYER
  5
1BE
330
F8
100
AcDbSymbolTableRecord
100
AcDbLayerTableRecord
  2
Layer 1
 70
     0
 62
     7
  6
Continuous
370
    -3
390
104
347
13A
348
0
  0
ENDTAB
  0
TABLE
  2
STYLE
  5
F9
330
0
100
AcDbSymbolTable
 70
     5
  0
STYLE
  5
106
330
F9
100
AcDbSymbolTableRecord
100
AcDbTextStyleTableRecord
  2
Standard
 70
     0
 40
0.0
 41
1.0
 50
0.0
 71
     0
 42
0.2
  3
txt
  4

  0
STYLE
  5
18A
330
F9
100
AcDbSymbolTableRecord
100
AcDbTextStyleTableRecord
  2
QCADDimTextStyle
 70
     0
 40
0.0
 41
1.0
 50
0.0
 71
     0
 42
0.2
  3

  4

  0
STYLE
  5
192
330
F9
100
AcDbSymbolTableRecord
100
AcDbTextStyleTableRecord
  2
textstyle0
 70
     0
 40
0.0
 41
1.0
 50
0.0
 71
     0
 42
0.2
  3
ltypeshp.shx
  4

  0
STYLE
  5
1A6
330
F9
100
AcDbSymbolTableRecord
100
AcDbTextStyleTableRecord
  2
textstyle1
 70
     0
 40
0.0
 41
1.0
 50
0.0
 71
     0
 42
0.2
  3
STANDARD
  4

  0
STYLE
  5
1B6
330
F9
100
AcDbSymbolTableRecord
100
AcDbTextStyleTableRecord
  2
textstyle2
 70
     0
 40
0.0
 41
1.0
 50
0.0
 71
     0
 42
0.2
  3
qcadshp.shx
  4

  0
ENDTAB
  0
TABLE
  2
VIEW
  5
FB
330
0
100
AcDbSymbolTable
 70
     0
  0
ENDTAB
  0
TABLE
  2
UCS
  5
FC
330
0
100
AcDbSymbolTable
 70
     0
  0
ENDTAB
  0
TABLE
  2
APPID
  5
FE
330
0
100
AcDbSymbolTable
 70
     2
  0
APPID
  5
107
330
FE
100
AcDbSymbolTableRecord
100
AcDbRegAppTableRecord
  2
ACAD
 70
     0
  0
APPID
  5
152
330
FE
100
AcDbSymbolTableRecord
100
AcDbRegAppTableRecord
  2
QCAD
 70
     0
  0
ENDTAB
  0
TABLE
  2
DIMSTYLE
  5
FF
330
0
100
AcDbSymbolTable
 70
     2
100
AcDbDimStyleTable
  0
DIMSTYLE
105
11B
330
FF
100
AcDbSymbolTableRecord
100
AcDbDimStyleTableRecord
  2
Standard
 70
     0
178
     0
340
106
  0
DIMSTYLE
105
18B
330
FF
100
AcDbSymbolTableRecord
100
AcDbDimStyleTableRecord
  2
QCADDimStyle
 70
     0
178
     0
279
     2
340
18A
  0
ENDTAB
  0
TABLE
  2
BLOCK_RECORD
  5
F7
330
0
100
AcDbSymbolTable
 70
     8
  0
BLOCK_RECORD
  5
113
330
F7
100
AcDbSymbolTableRecord
100
AcDbBlockTableRecord
  2
*Model_Space
340
116
 70
     0
280
     1
281
     0
  0
BLOCK_RECORD
  5
1C1
330
F7
100
AcDbSymbolTableRecord
100
AcDbBlockTableRecord
  2
*Paper_Space
340
1C2
 70
     0
280
     1
281
     0
  0
BLOCK_RECORD
  5
10F
330
F7
100
AcDbSymbolTableRecord
100
AcDbBlockTableRecord
  2
*Paper_Space1
340
112
 70
     0
280
     1
281
     0
  0
BLOCK_RECORD
  5
1C7
330
F7
100
AcDbSymbolTableRecord
100
AcDbBlockTableRecord
  2
block 2
340
0
102
{BLKREFS
331
F4
102
}
 70
     0
280
     1
281
     0
  0
BLOCK_RECORD
  5
1CA
330
F7
100
AcDbSymbolTableRecord
100
AcDbBlockTableRecord
  2
block 3
340
0
102
{BLKREFS
331
46
102
}
 70
     0
280
     1
281
     0
  0
BLOCK_RECORD
  5
1CD
330
F7
100
AcDbSymbolTableRecord
100
AcDbBlockTableRecord
  2
block 4
340
0
102
{BLKREFS
331
84
102
}
 70
     0
280
     1
281
     0
  0
BLOCK_RECORD
  5
1D0
330
F7
100
AcDbSymbolTableRecord
100
AcDbBlockTableRecord
  2
block 5
340
0
102
{BLKREFS
331
9D
102
}
 70
     0
280
     1
281
     0
  0
BLOCK_RECORD
  5
1D3
330
F7
100
AcDbSymbolTableRecord
100
AcDbBlockTableRecord
  2
block 6
340
0
102
{BLKREFS
331
A8
102
}
 70
     0
280
     1
281
     0
  0
BLOCK_RECORD
  5
1D6
330
F7
100
AcDbSymbolTableRecord
100
AcDbBlockTableRecord
  2
block 7
340
0
102
{BLKREFS
331
AC
102
}
 70
     0
280
     1
281
     0
  0
BLOCK_RECORD
  5
1D9
330
F7
100
AcDbSymbolTableRecord
100
AcDbBlockTableRecord
  2
block 8
340
0
102
{BLKREFS
331
F5
102
}
 70
     0
280
     1
281
     0
  0
ENDTAB
  0
ENDSEC
  0
SECTION
  2
BLOCKS
  0
BLOCK
  5
114
330
113
100
AcDbEntity
  8
0
100
AcDbBlockBegin
  2
*Model_Space
 70
     0
 10
0.0
 20
0.0
 30
0.0
  3
*Model_Space
  1

  0
ENDBLK
  5
115
330
113
100
AcDbEntity
  8
0
100
AcDbBlockEnd
  0
BLOCK
  5
1C3
330
1C1
100
AcDbEntity
 67
     1
  8
0
100
AcDbBlockBegin
  2
*Paper_Space
 70
     0
 10
0.0
 20
0.0
 30
0.0
  3
*Paper_Space
  1

  0
ENDBLK
  5
1C4
330
1C1
100
AcDbEntity
 67
     1
  8
0
100
AcDbBlockEnd
  0
BLOCK
  5
110
330
10F
100
AcDbEntity
  8
0
100
AcDbBlockBegin
  2
*Paper_Space1
 70
     0
 10
0.0
 20
0.0
 30
0.0
  3
*Paper_Space1
  1

  0
VIEWPORT
  5
1BF
330
10F
100
AcDbEntity
  8
0
100
AcDbViewport
 10
5.25
 20
4.0
 30
0.0
 40
11.638
 41
8.993
 68
     1
 69
     1
 12
5.25
 22
4.0
 13
0.0
 23
0.0
 14
0.5
 24
0.5
 15
0.5
 25
0.5
 16
0.0
 26
0.0
 36
1.0
 17
0.0
 27
0.0
 37
0.0
 42
50.0
 43
0.0
 44
0.0
 45
8.993
 50
0.0
 51
0.0
 72
   100
 90
   557152
  1

281
     0
 71
     1
 74
     0
110
0.0
120
0.0
130
0.0
111
1.0
121
0.0
131
0.0
112
0.0
122
1.0
132
0.0
 79
     0
146
0.0
170
     0
 61
     5
348
123
292
     1
282
     1
141
0.0
142
0.0
 63
   256
361
1C0
  0
ENDBLK
  5
111
330
10F
100
AcDbEntity
  8
0
100
AcDbBlockEnd
  0
BLOCK
  5
1C8
330
1C7
100
AcDbEntity
  8
0
100
AcDbBlockBegin
  2
block 2
 70
     0
 10
0.0
 20
0.0
 30
0.0
  3
block 2
  1

  0
SPLINE
  5
E5
330
1C7
100
AcDbEntity
  8
Layer 1
370
     0
100
AcDbSpline
210
0.0
220
0.0
230
1.0
 70
    11
 71
     3
 72
    47
 73
    43
 74
     0
 42
0.000000001
 43
0.001
 40
0.0
 40
0.0
 40
0.0
 40
0.0
 40
1.0
 40
1.0
 40
1.0
 40
2.0
 40
2.0
 40
2.0
 40
3.0
 40
3.0
 40
3.0
 40
4.0
 40
4.0
 40
4.0
 40
5.0
 40
5.0
 40
5.0
 40
6.0
 40
6.0
 40
6.0
 40
7.0
 40
7.0
 40
7.0
 40
8.0
 40
8.0
 40
8.0
 40
9.0
 40
9.0
 40
9.0
 40
10.0
 40
10.0
 40
10.0
 40
11.0
 40
11.0
 40
11.0
 40
12.0
 40
12.0
 40
12.0
 40
13.0
 40
13.0
 40
13.0
 40
14.0
 40
14.0
 40
14.0
 40
14.0
 10
60.73055013020833
 20
19.96148681640625
 30
0.0
 10
60.73055013020833
 20
19.96148681640625
 30
0.0
 10
60.73255750868055
 20
19.9635009765625
 30
0.0
 10
60.73255750868055
 20
19.9635009765625
 30
0.0
 10
60.73255750868055
 20
19.9635009765625
 30
0.0
 10
60.72705078125
 20
20.46161566840278
 30
0.0
 10
60.72705078125
 20
20.46161566840278
 30
0.0
 10
60.72705078125
 20
20.46161566840278
 30
0.0
 10
60.65869140625
 20
20.391845703125
 30
0.0
 10
60.65869140625
 20
20.391845703125
 30
0.0
 10
60.48575846354166
 20
20.56022135416666
 30
0.0
 10
60.24957953559027
 20
20.66398111979166
 30
0.0
 10
59.9891357421875
 20
20.66398111979166
 30
0.0
 10
59.45896402994791
 20
20.66398111979166
 30
0.0
 10
59.02916124131944
 20
20.23415798611111
 30
0.0
 10
59.02916124131944
 20
19.70398627387153
 30
0.0
 10
59.02916124131944
 20
19.17386203342014
 30
0.0
 10
59.45896402994791
 20
18.74405924479166
 30
0.0
 10
59.9891357421875
 20
18.74405924479166
 30
0.0
 10
60.26265462239583
 20
18.74405924479166
 30
0.0
 10
60.50941297743055
 20
18.85847981770833
 30
0.0
 10
60.68427191840277
 20
19.04200575086805
 30
0.0
 10
60.68427191840277
 20
19.04200575086805
 30
0.0
 10
60.3314208984375
 20
19.3741455078125
 30
0.0
 10
60.3314208984375
 20
19.3741455078125
 30
0.0
 10
60.24496799045139
 20
19.28443060980903
 30
0.0
 10
60.12358940972222
 20
19.22863091362847
 30
0.0
 10
59.9891357421875
 20
19.22863091362847
 30
0.0
 10
59.72657606336805
 20
19.22863091362847
 30
0.0
 10
59.51373969184027
 20
19.44145372178819
 30
0.0
 10
59.51373969184027
 20
19.70398627387153
 30
0.0
 10
59.51373969184027
 20
19.966552734375
 30
0.0
 10
59.72657606336805
 20
20.17945692274305
 30
0.0
 10
59.9891357421875
 20
20.17945692274305
 30
0.0
 10
60.11754014756944
 20
20.17945692274305
 30
0.0
 10
60.23402235243055
 20
20.12849934895833
 30
0.0
 10
60.319580078125
 20
20.04576280381944
 30
0.0
 10
60.319580078125
 20
20.04576280381944
 30
0.0
 10
60.23049587673611
 20
19.95491536458333
 30
0.0
 10
60.23049587673611
 20
19.95491536458333
 30
0.0
 10
60.23049587673611
 20
19.95491536458333
 30
0.0
 10
60.73055013020833
 20
19.96148681640625
 30
0.0
 10
60.73055013020833
 20
19.96148681640625
 30
0.0
  0
HATCH
  5
E6
330
1C7
100
AcDbEntity
  8
Layer 1
 62
     5
440
 33554687
100
AcDbHatch
 10
0.0
 20
0.0
 30
0.0
210
0.0
220
0.0
230
1.0
  2
SOLID
 70
     1
 71
     0
 91
        1
 92
        0
 93
        1
 72
     4
 94
        3
 73
     0
 74
     0
 95
       47
 96
       43
 40
0.0
 40
0.0
 40
0.0
 40
0.0
 40
1.0
 40
1.0
 40
1.0
 40
2.0
 40
2.0
 40
2.0
 40
3.0
 40
3.0
 40
3.0
 40
4.0
 40
4.0
 40
4.0
 40
5.0
 40
5.0
 40
5.0
 40
6.0
 40
6.0
 40
6.0
 40
7.0
 40
7.0
 40
7.0
 40
8.0
 40
8.0
 40
8.0
 40
9.0
 40
9.0
 40
9.0
 40
10.0
 40
10.0
 40
10.0
 40
11.0
 40
11.0
 40
11.0
 40
12.0
 40
12.0
 40
12.0
 40
13.0
 40
13.0
 40
13.0
 40
14.0
 40
14.0
 40
14.0
 40
14.0
 10
60.73055013020833
 20
19.96148681640625
 10
60.73055013020833
 20
19.96148681640625
 10
60.73255750868055
 20
19.9635009765625
 10
60.73255750868055
 20
19.9635009765625
 10
60.73255750868055
 20
19.9635009765625
 10
60.72705078125
 20
20.46161566840278
 10
60.72705078125
 20
20.46161566840278
 10
60.72705078125
 20
20.46161566840278
 10
60.65869140625
 20
20.391845703125
 10
60.65869140625
 20
20.391845703125
 10
60.48575846354166
 20
20.56022135416666
 10
60.24957953559027
 20
20.66398111979166
 10
59.9891357421875
 20
20.66398111979166
 10
59.45896402994791
 20
20.66398111979166
 10
59.02916124131944
 20
20.23415798611111
 10
59.02916124131944
 20
19.70398627387153
 10
59.02916124131944
 20
19.17386203342014
 10
59.45896402994791
 20
18.74405924479166
 10
59.9891357421875
 20
18.74405924479166
 10
60.26265462239583
 20
18.74405924479166
 10
60.50941297743055
 20
18.85847981770833
 10
60.68427191840277
 20
19.04200575086805
 10
60.68427191840277
 20
19.04200575086805
 10
60.3314208984375
 20
19.3741455078125
 10
60.3314208984375
 20
19.3741455078125
 10
60.24496799045139
 20
19.28443060980903
 10
60.12358940972222
 20
19.22863091362847
 10
59.9891357421875
 20
19.22863091362847
 10
59.72657606336805
 20
19.22863091362847
 10
59.51373969184027
 20
19.44145372178819
 10
59.51373969184027
 20
19.70398627387153
 10
59.51373969184027
 20
19.966552734375
 10
59.72657606336805
 20
20.17945692274305
 10
59.9891357421875
 20
20.17945692274305
 10
60.11754014756944
 20
20.17945692274305
 10
60.23402235243055
 20
20.12849934895833
 10
60.319580078125
 20
20.04576280381944
 10
60.319580078125
 20
20.04576280381944
 10
60.23049587673611
 20
19.95491536458333
 10
60.23049587673611
 20
19.95491536458333
 10
60.23049587673611
 20
19.95491536458333
 10
60.73055013020833
 20
19.96148681640625
 10
60.73055013020833
 20
19.96148681640625
 97
        0
 97
        0
 75
     0
 76
     1
 98
        0
  0
SPLINE
  5
E7
330
1C7
100
AcDbEntity
  8
Layer 1
370
     0
100
AcDbSpline
210
0.0
220
0.0
230
1.0
 70
    11
 71
     3
 72
    29
 73
    25
 74
     0
 42
0.000000001
 43
0.001
 40
0.0
 40
0.0
 40
0.0
 40
0.0
 40
1.0
 40
1.0
 40
1.0
 40
2.0
 40
2.0
 40
2.0
 40
3.0
 40
3.0
 40
3.0
 40
4.0
 40
4.0
 40
4.0
 40
5.0
 40
5.0
 40
5.0
 40
6.0
 40
6.0
 40
6.0
 40
7.0
 40
7.0
 40
7.0
 40
8.0
 40
8.0
 40
8.0
 40
8.0
 10
61.10469563802083
 20
21.12567816840278
 30
0.0
 10
61.27701822916666
 20
21.12567816840278
 30
0.0
 10
61.416748046875
 20
20.98596869574653
 30
0.0
 10
61.416748046875
 20
20.81369357638889
 30
0.0
 10
61.416748046875
 20
20.81369357638889
 30
0.0
 10
61.416748046875
 20
18.59440104166666
 30
0.0
 10
61.416748046875
 20
18.59440104166666
 30
0.0
 10
61.416748046875
 20
18.42201063368055
 30
0.0
 10
61.27701822916666
 20
18.28238932291666
 30
0.0
 10
61.10469563802083
 20
18.28238932291666
 30
0.0
 10
61.10469563802083
 20
18.28238932291666
 30
0.0
 10
58.87356228298611
 20
18.28238932291666
 30
0.0
 10
58.87356228298611
 20
18.28238932291666
 30
0.0
 10
58.70121934678819
 20
18.28238932291666
 30
0.0
 10
58.5615234375
 20
18.42201063368055
 30
0.0
 10
58.5615234375
 20
18.59440104166666
 30
0.0
 10
58.5615234375
 20
18.59440104166666
 30
0.0
 10
58.5615234375
 20
20.81369357638889
 30
0.0
 10
58.5615234375
 20
20.81369357638889
 30
0.0
 10
58.5615234375
 20
20.98596869574653
 30
0.0
 10
58.70121934678819
 20
21.12567816840278
 30
0.0
 10
58.87356228298611
 20
21.12567816840278
 30
0.0
 10
58.87356228298611
 20
21.12567816840278
 30
0.0
 10
61.10469563802083
 20
21.12567816840278
 30
0.0
 10
61.10469563802083
 20
21.12567816840278
 30
0.0
  0
SPLINE
  5
E8
330
1C7
100
AcDbEntity
  8
Layer 1
370
     0
100
AcDbSpline
210
0.0
220
0.0
230
1.0
 70
    11
 71
     3
 72
    17
 73
    13
 74
     0
 42
0.000000001
 43
0.001
 40
0.0
 40
0.0
 40
0.0
 40
0.0
 40
1.0
 40
1.0
 40
1.0
 40
2.0
 40
2.0
 40
2.0
 40
3.0
 40
3.0
 40
3.0
 40
4.0
 40
4.0
 40
4.0
 40
4.0
 10
59.9891357421875
 20
20.87459309895833
 30
0.0
 10
59.34261745876736
 20
20.87459309895833
 30
0.0
 10
58.81858317057291
 20
20.35047064887153
 30
0.0
 10
58.81858317057291
 20
19.70398627387153
 30
0.0
 10
58.81858317057291
 20
19.05751546223958
 30
0.0
 10
59.34261745876736
 20
18.53344048394097
 30
0.0
 10
59.9891357421875
 20
18.53344048394097
 30
0.0
 10
60.63563368055555
 20
18.53344048394097
 30
0.0
 10
61.15966796875
 20
19.05751546223958
 30
0.0
 10
61.15966796875
 20
19.70398627387153
 30
0.0
 10
61.15966796875
 20
20.35047064887153
 30
0.0
 10
60.63563368055555
 20
20.87459309895833
 30
0.0
 10
59.9891357421875
 20
20.87459309895833
 30
0.0
  0
HATCH
  5
E9
330
1C7
100
AcDbEntity
  8
Layer 1
 62
     5
440
 33554687
100
AcDbHatch
 10
0.0
 20
0.0
 30
0.0
210
0.0
220
0.0
230
1.0
  2
SOLID
 70
     1
 71
     0
 91
        2
 92
        0
 93
        1
 72
     4
 94
        3
 73
     0
 74
     0
 95
       29
 96
       25
 40
0.0
 40
0.0
 40
0.0
 40
0.0
 40
1.0
 40
1.0
 40
1.0
 40
2.0
 40
2.0
 40
2.0
 40
3.0
 40
3.0
 40
3.0
 40
4.0
 40
4.0
 40
4.0
 40
5.0
 40
5.0
 40
5.0
 40
6.0
 40
6.0
 40
6.0
 40
7.0
 40
7.0
 40
7.0
 40
8.0
 40
8.0
 40
8.0
 40
8.0
 10
61.10469563802083
 20
21.12567816840278
 10
61.27701822916666
 20
21.12567816840278
 10
61.416748046875
 20
20.98596869574653
 10
61.416748046875
 20
20.81369357638889
 10
61.416748046875
 20
20.81369357638889
 10
61.416748046875
 20
18.59440104166666
 10
61.416748046875
 20
18.59440104166666
 10
61.416748046875
 20
18.42201063368055
 10
61.27701822916666
 20
18.28238932291666
 10
61.10469563802083
 20
18.28238932291666
 10
61.10469563802083
 20
18.28238932291666
 10
58.87356228298611
 20
18.28238932291666
 10
58.87356228298611
 20
18.28238932291666
 10
58.70121934678819
 20
18.28238932291666
 10
58.5615234375
 20
18.42201063368055
 10
58.5615234375
 20
18.59440104166666
 10
58.5615234375
 20
18.59440104166666
 10
58.5615234375
 20
20.81369357638889
 10
58.5615234375
 20
20.81369357638889
 10
58.5615234375
 20
20.98596869574653
 10
58.70121934678819
 20
21.12567816840278
 10
58.87356228298611
 20
21.12567816840278
 10
58.87356228298611
 20
21.12567816840278
 10
61.10469563802083
 20
21.12567816840278
 10
61.10469563802083
 20
21.12567816840278
 97
        0
 97
        0
 92
        0
 93
        1
 72
     4
 94
        3
 73
     0
 74
     0
 95
       17
 96
       13
 40
0.0
 40
0.0
 40
0.0
 40
0.0
 40
1.0
 40
1.0
 40
1.0
 40
2.0
 40
2.0
 40
2.0
 40
3.0
 40
3.0
 40
3.0
 40
4.0
 40
4.0
 40
4.0
 40
4.0
 10
59.9891357421875
 20
20.87459309895833
 10
59.34261745876736
 20
20.87459309895833
 10
58.81858317057291
 20
20.35047064887153
 10
58.81858317057291
 20
19.70398627387153
 10
58.81858317057291
 20
19.05751546223958
 10
59.34261745876736
 20
18.53344048394097
 10
59.9891357421875
 20
18.53344048394097
 10
60.63563368055555
 20
18.53344048394097
 10
61.15966796875
 20
19.05751546223958
 10
61.15966796875
 20
19.70398627387153
 10
61.15966796875
 20
20.35047064887153
 10
60.63563368055555
 20
20.87459309895833
 10
59.9891357421875
 20
20.87459309895833
 97
        0
 97
        0
 75
     0
 76
     1
 98
        0
  0
ENDBLK
  5
1C9
330
1C7
100
AcDbEntity
  8
0
100
AcDbBlockEnd
  0
BLOCK
  5
1CB
330
1CA
100
AcDbEntity
  8
0
100
AcDbBlockBegin
  2
block 3
 70
     0
 10
0.0
 20
0.0
 30
0.0
  3
block 3
  1

  0
SPLINE
  5
49
330
1CA
100
AcDbEntity
  8
Layer 1
370
     0
100
AcDbSpline
210
0.0
220
0.0
230
1.0
 70
    11
 71
     3
 72
    29
 73
    25
 74
     0
 42
0.000000001
 43
0.001
 40
0.0
 40
0.0
 40
0.0
 40
0.0
 40
1.0
 40
1.0
 40
1.0
 40
2.0
 40
2.0
 40
2.0
 40
3.0
 40
3.0
 40
3.0
 40
4.0
 40
4.0
 40
4.0
 40
5.0
 40
5.0
 40
5.0
 40
6.0
 40
6.0
 40
6.0
 40
7.0
 40
7.0
 40
7.0
 40
8.0
 40
8.0
 40
8.0
 40
8.0
 10
61.33402506510416
 20
18.18374972873264
 30
0.0
 10
61.33402506510416
 20
18.18374972873264
 30
0.0
 10
58.64333089192708
 20
18.18374972873264
 30
0.0
 10
58.64333089192708
 20
18.18374972873264
 30
0.0
 10
58.59735785590277
 20
18.18374972873264
 30
0.0
 10
58.55999755859375
 20
18.14971923828125
 30
0.0
 10
58.55999755859375
 20
18.10763888888889
 30
0.0
 10
58.55999755859375
 20
18.10763888888889
 30
0.0
 10
58.55999755859375
 20
17.62764485677083
 30
0.0
 10
58.55999755859375
 20
17.62764485677083
 30
0.0
 10
58.55999755859375
 20
17.58555772569444
 30
0.0
 10
58.59735785590277
 20
17.5513916015625
 30
0.0
 10
58.64333089192708
 20
17.5513916015625
 30
0.0
 10
58.64333089192708
 20
17.5513916015625
 30
0.0
 10
61.33402506510416
 20
17.5513916015625
 30
0.0
 10
61.33402506510416
 20
17.5513916015625
 30
0.0
 10
61.3800048828125
 20
17.5513916015625
 30
0.0
 10
61.4173583984375
 20
17.58555772569444
 30
0.0
 10
61.4173583984375
 20
17.62764485677083
 30
0.0
 10
61.4173583984375
 20
17.62764485677083
 30
0.0
 10
61.4173583984375
 20
18.10763888888889
 30
0.0
 10
61.4173583984375
 20
18.10763888888889
 30
0.0
 10
61.4173583984375
 20
18.14971923828125
 30
0.0
 10
61.3800048828125
 20
18.18374972873264
 30
0.0
 10
61.33402506510416
 20
18.18374972873264
 30
0.0
  0
SPLINE
  5
4A
330
1CA
100
AcDbEntity
  8
Layer 1
370
     0
100
AcDbSpline
210
0.0
220
0.0
230
1.0
 70
    11
 71
     3
 72
    95
 73
    91
 74
     0
 42
0.000000001
 43
0.001
 40
0.0
 40
0.0
 40
0.0
 40
0.0
 40
1.0
 40
1.0
 40
1.0
 40
2.0
 40
2.0
 40
2.0
 40
3.0
 40
3.0
 40
3.0
 40
4.0
 40
4.0
 40
4.0
 40
5.0
 40
5.0
 40
5.0
 40
6.0
 40
6.0
 40
6.0
 40
7.0
 40
7.0
 40
7.0
 40
8.0
 40
8.0
 40
8.0
 40
9.0
 40
9.0
 40
9.0
 40
10.0
 40
10.0
 40
10.0
 40
11.0
 40
11.0
 40
11.0
 40
12.0
 40
12.0
 40
12.0
 40
13.0
 40
13.0
 40
13.0
 40
14.0
 40
14.0
 40
14.0
 40
15.0
 40
15.0
 40
15.0
 40
16.0
 40
16.0
 40
16.0
 40
17.0
 40
17.0
 40
17.0
 40
18.0
 40
18.0
 40
18.0
 40
19.0
 40
19.0
 40
19.0
 40
20.0
 40
20.0
 40
20.0
 40
21.0
 40
21.0
 40
21.0
 40
22.0
 40
22.0
 40
22.0
 40
23.0
 40
23.0
 40
23.0
 40
24.0
 40
24.0
 40
24.0
 40
25.0
 40
25.0
 40
25.0
 40
26.0
 40
26.0
 40
26.0
 40
27.0
 40
27.0
 40
27.0
 40
28.0
 40
28.0
 40
28.0
 40
29.0
 40
29.0
 40
29.0
 40
30.0
 40
30.0
 40
30.0
 40
30.0
 10
59.08597140842014
 20
17.73847113715278
 30
0.0
 10
59.07972547743055
 20
17.72153049045139
 30
0.0
 10
59.07041422526041
 20
17.70555284288194
 30
0.0
 10
59.0580579969618
 20
17.69070095486111
 30
0.0
 10
59.04569498697916
 20
17.67583550347222
 30
0.0
 10
59.03000217013889
 20
17.66388617621528
 30
0.0
 10
59.0106947157118
 20
17.65471733940972
 30
0.0
 10
58.9915296766493
 20
17.64556206597222
 30
0.0
 10
58.96902804904514
 20
17.64111328125
 30
0.0
 10
58.94361029730902
 20
17.64111328125
 30
0.0
 10
58.91514078776041
 20
17.64111328125
 30
0.0
 10
58.89083523220486
 20
17.64763726128472
 30
0.0
 10
58.8709716796875
 20
17.66083441840278
 30
0.0
 10
58.85097249348958
 20
17.67416720920139
 30
0.0
 10
58.83500162760416
 20
17.6915283203125
 30
0.0
 10
58.82333034939236
 20
17.71333821614583
 30
0.0
 10
58.81166585286458
 20
17.73513454861111
 30
0.0
 10
58.80319552951389
 20
17.75832790798611
 30
0.0
 10
58.79833306206597
 20
17.78318956163194
 30
0.0
 10
58.7933349609375
 20
17.80791558159722
 30
0.0
 10
58.79083251953125
 20
17.8326416015625
 30
0.0
 10
58.79083251953125
 20
17.85708279079861
 30
0.0
 10
58.79083251953125
 20
17.88263617621528
 30
0.0
 10
58.79347059461805
 20
17.90791829427083
 30
0.0
 10
58.79888916015625
 20
17.93291558159722
 30
0.0
 10
58.80416531032986
 20
17.95806206597222
 30
0.0
 10
58.81291368272569
 20
17.98110622829861
 30
0.0
 10
58.82499864366319
 20
18.00236002604166
 30
0.0
 10
58.83708360460069
 20
18.02347819010416
 30
0.0
 10
58.85347493489583
 20
18.04041883680555
 30
0.0
 10
58.87403021918402
 20
18.05319552951389
 30
0.0
 10
58.89458550347222
 20
18.06597222222222
 30
0.0
 10
58.91958279079861
 20
18.07250298394097
 30
0.0
 10
58.94875081380208
 20
18.07250298394097
 30
0.0
 10
58.95472547743055
 20
18.07250298394097
 30
0.0
 10
58.9593031141493
 20
18.07222493489583
 30
0.0
 10
58.96236165364583
 20
18.07180447048611
 30
0.0
 10
58.97916666666666
 20
18.07069227430555
 30
0.0
 10
58.99541558159722
 20
18.06610785590278
 30
0.0
 10
59.0111083984375
 20
18.05791558159722
 30
0.0
 10
59.0268079969618
 20
18.04985894097222
 30
0.0
 10
59.04083251953125
 20
18.03888617621528
 30
0.0
 10
59.0530531141493
 20
18.02513292100694
 30
0.0
 10
59.06528049045139
 20
18.01152886284722
 30
0.0
 10
59.07499864366319
 20
17.99541558159722
 30
0.0
 10
59.08208550347222
 20
17.97707790798611
 30
0.0
 10
59.0893079969618
 20
17.95875379774305
 30
0.0
 10
59.09278021918402
 20
17.93916829427083
 30
0.0
 10
59.09278021918402
 20
17.91847059461805
 30
0.0
 10
59.09278021918402
 20
17.91847059461805
 30
0.0
 10
59.02333577473958
 20
17.91847059461805
 30
0.0
 10
59.02333577473958
 20
17.91847059461805
 30
0.0
 10
59.02041965060764
 20
17.94166395399305
 30
0.0
 10
59.01291910807291
 20
17.96124945746528
 30
0.0
 10
59.00083414713541
 20
17.97694227430555
 30
0.0
 10
58.98874918619791
 20
17.99278428819444
 30
0.0
 10
58.97111002604166
 20
18.00069173177083
 30
0.0
 10
58.94805230034722
 20
18.00069173177083
 30
0.0
 10
58.92888726128472
 20
18.00027126736111
 30
0.0
 10
58.91278076171875
 20
17.99332682291666
 30
0.0
 10
58.89944118923611
 20
17.97972276475694
 30
0.0
 10
58.8861083984375
 20
17.96625434027778
 30
0.0
 10
58.87624782986111
 20
17.94847276475694
 30
0.0
 10
58.86972384982639
 20
17.9263916015625
 30
0.0
 10
58.86305745442708
 20
17.90444607204861
 30
0.0
 10
58.85986328125
 20
17.88083224826389
 30
0.0
 10
58.85986328125
 20
17.8558349609375
 30
0.0
 10
58.86027696397569
 20
17.83110894097222
 30
0.0
 10
58.86402723524305
 20
17.80791558159722
 30
0.0
 10
58.87083604600694
 20
17.7862548828125
 30
0.0
 10
58.8776380750868
 20
17.76458062065972
 30
0.0
 10
58.88749864366319
 20
17.74708387586805
 30
0.0
 10
58.90055338541666
 20
17.73361545138889
 30
0.0
 10
58.91360812717014
 20
17.72013346354166
 30
0.0
 10
58.92916531032986
 20
17.71347384982639
 30
0.0
 10
58.94694688585069
 20
17.71347384982639
 30
0.0
 10
58.96083577473958
 20
17.71347384982639
 30
0.0
 10
58.97333441840277
 20
17.71666124131944
 30
0.0
 10
58.98430718315972
 20
17.72333441840278
 30
0.0
 10
58.99527994791666
 20
17.72999403211805
 30
0.0
 10
59.00416395399305
 20
17.73902723524305
 30
0.0
 10
59.01097276475694
 20
17.75055609809028
 30
0.0
 10
59.0177747938368
 20
17.7620849609375
 30
0.0
 10
59.02222357855902
 20
17.77486165364583
 30
0.0
 10
59.02444118923611
 20
17.78917100694444
 30
0.0
 10
59.02444118923611
 20
17.78917100694444
 30
0.0
 10
59.09694417317708
 20
17.78917100694444
 30
0.0
 10
59.09694417317708
 20
17.78917100694444
 30
0.0
 10
59.09583197699652
 20
17.77250162760416
 30
0.0
 10
59.09222412109375
 20
17.75556098090278
 30
0.0
 10
59.08597140842014
 20
17.73847113715278
 30
0.0
  0
LWPOLYLINE
  5
4B
330
1CA
100
AcDbEntity
  8
Layer 1
370
     0
100
AcDbPolyline
 90
       13
 70
     0
 43
0.0
 10
59.40680609809027
 20
17.65028211805555
 10
59.14638943142361
 20
17.65028211805555
 10
59.14638943142361
 20
18.06722005208333
 10
59.39763726128472
 20
18.06722005208333
 10
59.39763726128472
 20
17.99207899305555
 10
59.2227783203125
 20
17.99207899305555
 10
59.2227783203125
 20
17.90611436631944
 10
59.38402642144097
 20
17.90611436631944
 10
59.38402642144097
 20
17.82916937934028
 10
59.2227783203125
 20
17.82916937934028
 10
59.2227783203125
 20
17.72722710503472
 10
59.40680609809027
 20
17.72722710503472
 10
59.40680609809027
 20
17.65028211805555
  0
LWPOLYLINE
  5
5A
330
1CA
100
AcDbEntity
  8
Layer 1
370
     0
100
AcDbPolyline
 90
       11
 70
     0
 43
0.0
 10
59.72916666666666
 20
17.65028211805555
 10
59.65805392795139
 20
17.65028211805555
 10
59.51902940538194
 20
17.93736436631944
 10
59.51902940538194
 20
17.65028211805555
 10
59.44666883680555
 20
17.65028211805555
 10
59.44666883680555
 20
18.06722005208333
 10
59.51902940538194
 20
18.06722005208333
 10
59.65805392795139
 20
17.78472222222222
 10
59.65805392795139
 20
18.06722005208333
 10
59.72916666666666
 20
18.06722005208333
 10
59.72916666666666
 20
17.65028211805555
  0
LWPOLYLINE
  5
67
330
1CA
100
AcDbEntity
  8
Layer 1
370
     0
100
AcDbPolyline
 90
        9
 70
     0
 43
0.0
 10
60.0352783203125
 20
17.99207899305555
 10
59.93611653645833
 20
17.99207899305555
 10
59.93611653645833
 20
17.65028211805555
 10
59.86485460069444
 20
17.65028211805555
 10
59.86485460069444
 20
17.99207899305555
 10
59.76180013020833
 20
17.99207899305555
 10
59.76180013020833
 20
18.06722005208333
 10
60.0352783203125
 20
18.06722005208333
 10
60.0352783203125
 20
17.99207899305555
  0
SPLINE
  5
72
330
1CA
100
AcDbEntity
  8
Layer 1
370
     0
100
AcDbSpline
210
0.0
220
0.0
230
1.0
 70
    11
 71
     3
 72
    77
 73
    73
 74
     0
 42
0.000000001
 43
0.001
 40
0.0
 40
0.0
 40
0.0
 40
0.0
 40
1.0
 40
1.0
 40
1.0
 40
2.0
 40
2.0
 40
2.0
 40
3.0
 40
3.0
 40
3.0
 40
4.0
 40
4.0
 40
4.0
 40
5.0
 40
5.0
 40
5.0
 40
6.0
 40
6.0
 40
6.0
 40
7.0
 40
7.0
 40
7.0
 40
8.0
 40
8.0
 40
8.0
 40
9.0
 40
9.0
 40
9.0
 40
10.0
 40
10.0
 40
10.0
 40
11.0
 40
11.0
 40
11.0
 40
12.0
 40
12.0
 40
12.0
 40
13.0
 40
13.0
 40
13.0
 40
14.0
 40
14.0
 40
14.0
 40
15.0
 40
15.0
 40
15.0
 40
16.0
 40
16.0
 40
16.0
 40
17.0
 40
17.0
 40
17.0
 40
18.0
 40
18.0
 40
18.0
 40
19.0
 40
19.0
 40
19.0
 40
20.0
 40
20.0
 40
20.0
 40
21.0
 40
21.0
 40
21.0
 40
22.0
 40
22.0
 40
22.0
 40
23.0
 40
23.0
 40
23.0
 40
24.0
 40
24.0
 40
24.0
 40
24.0
 10
60.320556640625
 20
17.84292263454861
 30
0.0
 10
60.32596842447916
 20
17.83818901909722
 30
0.0
 10
60.3306884765625
 20
17.83194986979166
 30
0.0
 10
60.334716796875
 20
17.82430013020833
 30
0.0
 10
60.33860948350694
 20
17.8165283203125
 30
0.0
 10
60.34054904513889
 20
17.80791558159722
 30
0.0
 10
60.34054904513889
 20
17.79833984375
 30
0.0
 10
60.34054904513889
 20
17.79833984375
 30
0.0
 10
60.34457736545139
 20
17.70486111111111
 30
0.0
 10
60.34457736545139
 20
17.70486111111111
 30
0.0
 10
60.34457736545139
 20
17.69611273871528
 30
0.0
 10
60.34624565972222
 20
17.6884765625
 30
0.0
 10
60.34944661458333
 20
17.68208821614583
 30
0.0
 10
60.35263400607639
 20
17.67569986979166
 30
0.0
 10
60.35555013020833
 20
17.67249891493055
 30
0.0
 10
60.35819498697916
 20
17.67249891493055
 30
0.0
 10
60.35819498697916
 20
17.67249891493055
 30
0.0
 10
60.35819498697916
 20
17.65028211805555
 30
0.0
 10
60.35819498697916
 20
17.65028211805555
 30
0.0
 10
60.35819498697916
 20
17.65028211805555
 30
0.0
 10
60.28249782986111
 20
17.65028211805555
 30
0.0
 10
60.28249782986111
 20
17.65028211805555
 30
0.0
 10
60.274169921875
 20
17.6744384765625
 30
0.0
 10
60.26944986979166
 20
17.70332845052083
 30
0.0
 10
60.2681884765625
 20
17.7369384765625
 30
0.0
 10
60.26902940538194
 20
17.74527994791666
 30
0.0
 10
60.26930067274305
 20
17.75680881076389
 30
0.0
 10
60.26930067274305
 20
17.77152506510416
 30
0.0
 10
60.26930067274305
 20
17.78361002604166
 30
0.0
 10
60.26833767361111
 20
17.79264322916666
 30
0.0
 10
60.26611328125
 20
17.79874674479166
 30
0.0
 10
60.26402452256944
 20
17.80472819010416
 30
0.0
 10
60.25944010416666
 20
17.80916341145833
 30
0.0
 10
60.25236002604166
 20
17.81194390190972
 30
0.0
 10
60.24527994791666
 20
17.81472439236111
 30
0.0
 10
60.23417154947916
 20
17.81610785590278
 30
0.0
 10
60.21917046440972
 20
17.81610785590278
 30
0.0
 10
60.21917046440972
 20
17.81610785590278
 30
0.0
 10
60.14792209201389
 20
17.81610785590278
 30
0.0
 10
60.14792209201389
 20
17.81610785590278
 30
0.0
 10
60.14792209201389
 20
17.81610785590278
 30
0.0
 10
60.14792209201389
 20
17.65028211805555
 30
0.0
 10
60.14792209201389
 20
17.65028211805555
 30
0.0
 10
60.14792209201389
 20
17.65028211805555
 30
0.0
 10
60.0755615234375
 20
17.65028211805555
 30
0.0
 10
60.0755615234375
 20
17.65028211805555
 30
0.0
 10
60.0755615234375
 20
17.65028211805555
 30
0.0
 10
60.0755615234375
 20
18.06722005208333
 30
0.0
 10
60.0755615234375
 20
18.06722005208333
 30
0.0
 10
60.0755615234375
 20
18.06722005208333
 30
0.0
 10
60.26930067274305
 20
18.06722005208333
 30
0.0
 10
60.26930067274305
 20
18.06722005208333
 30
0.0
 10
60.28249782986111
 20
18.06722005208333
 30
0.0
 10
60.29471842447916
 20
18.06430392795139
 30
0.0
 10
60.30597601996527
 20
18.05860731336805
 30
0.0
 10
60.31722005208333
 20
18.05277506510416
 30
0.0
 10
60.32680935329861
 20
18.04486762152778
 30
0.0
 10
60.334716796875
 20
18.03472222222222
 30
0.0
 10
60.34263780381944
 20
18.02472601996528
 30
0.0
 10
60.3487548828125
 20
18.0130615234375
 30
0.0
 10
60.35291883680555
 20
18.0
 30
0.0
 10
60.35721842447916
 20
17.98680284288194
 30
0.0
 10
60.35944281684027
 20
17.97291395399305
 30
0.0
 10
60.35944281684027
 20
17.95846896701389
 30
0.0
 10
60.35944281684027
 20
17.93819173177083
 30
0.0
 10
60.35472276475694
 20
17.91875542534722
 30
0.0
 10
60.34555392795139
 20
17.89999728732639
 30
0.0
 10
60.33638509114583
 20
17.88138834635416
 30
0.0
 10
60.32278103298611
 20
17.86541069878472
 30
0.0
 10
60.30472819010416
 20
17.85249837239583
 30
0.0
 10
60.30985514322916
 20
17.850830078125
 30
0.0
 10
60.31514485677083
 20
17.84764268663194
 30
0.0
 10
60.320556640625
 20
17.84292263454861
 30
0.0
  0
SPLINE
  5
73
330
1CA
100
AcDbEntity
  8
Layer 1
370
     0
100
AcDbSpline
210
0.0
220
0.0
230
1.0
 70
    11
 71
     3
 72
    47
 73
    43
 74
     0
 42
0.000000001
 43
0.001
 40
0.0
 40
0.0
 40
0.0
 40
0.0
 40
1.0
 40
1.0
 40
1.0
 40
2.0
 40
2.0
 40
2.0
 40
3.0
 40
3.0
 40
3.0
 40
4.0
 40
4.0
 40
4.0
 40
5.0
 40
5.0
 40
5.0
 40
6.0
 40
6.0
 40
6.0
 40
7.0
 40
7.0
 40
7.0
 40
8.0
 40
8.0
 40
8.0
 40
9.0
 40
9.0
 40
9.0
 40
10.0
 40
10.0
 40
10.0
 40
11.0
 40
11.0
 40
11.0
 40
12.0
 40
12.0
 40
12.0
 40
13.0
 40
13.0
 40
13.0
 40
14.0
 40
14.0
 40
14.0
 40
14.0
 10
60.7227783203125
 20
17.7701416015625
 30
0.0
 10
60.71652560763889
 20
17.74458821614583
 30
0.0
 10
60.7066650390625
 20
17.7218017578125
 30
0.0
 10
60.69346788194444
 20
17.70166015625
 30
0.0
 10
60.68013509114583
 20
17.68153211805555
 30
0.0
 10
60.66277398003472
 20
17.66583930121528
 30
0.0
 10
60.64166937934027
 20
17.65431043836805
 30
0.0
 10
60.62041558159722
 20
17.64291720920139
 30
0.0
 10
60.59528266059027
 20
17.63722059461805
 30
0.0
 10
60.56624348958333
 20
17.63722059461805
 30
0.0
 10
60.5443115234375
 20
17.63722059461805
 30
0.0
 10
60.52305772569444
 20
17.64153374565972
 30
0.0
 10
60.50249565972222
 20
17.64999728732639
 30
0.0
 10
60.48208279079861
 20
17.65861002604166
 30
0.0
 10
60.46360948350694
 20
17.67207845052083
 30
0.0
 10
60.44736056857639
 20
17.69028049045139
 30
0.0
 10
60.43111165364583
 20
17.70860460069444
 30
0.0
 10
60.41819932725694
 20
17.73208279079861
 30
0.0
 10
60.40874565972222
 20
17.76068793402778
 30
0.0
 10
60.39944118923611
 20
17.789306640625
 30
0.0
 10
60.39472113715277
 20
17.82305230034722
 30
0.0
 10
60.39472113715277
 20
17.86166720920139
 30
0.0
 10
60.39652506510416
 20
17.89458550347222
 30
0.0
 10
60.40277777777777
 20
17.92708333333333
 30
0.0
 10
60.41346571180555
 20
17.95944552951389
 30
0.0
 10
60.42403157552083
 20
17.99167209201389
 30
0.0
 10
60.44179958767361
 20
18.01930067274305
 30
0.0
 10
60.46694607204861
 20
18.04222276475694
 30
0.0
 10
60.49207899305555
 20
18.06499565972222
 30
0.0
 10
60.52513292100694
 20
18.07652452256944
 30
0.0
 10
60.56624348958333
 20
18.07652452256944
 30
0.0
 10
60.59417046440972
 20
18.07652452256944
 30
0.0
 10
60.62055121527777
 20
18.06846788194444
 30
0.0
 10
60.64541286892361
 20
18.05235460069444
 30
0.0
 10
60.67013888888889
 20
18.03639051649305
 30
0.0
 10
60.69041612413194
 20
18.01152886284722
 30
0.0
 10
60.70610894097222
 20
17.977783203125
 30
0.0
 10
60.72195095486111
 20
17.94417317708333
 30
0.0
 10
60.73055013020833
 20
17.90235731336805
 30
0.0
 10
60.73208279079861
 20
17.85249837239583
 30
0.0
 10
60.73208279079861
 20
17.82305230034722
 30
0.0
 10
60.72889539930555
 20
17.79555935329861
 30
0.0
 10
60.7227783203125
 20
17.7701416015625
 30
0.0
  0
LWPOLYLINE
  5
74
330
1CA
100
AcDbEntity
  8
Layer 1
370
     0
100
AcDbPolyline
 90
        5
 70
     0
 43
0.0
 10
60.84486219618055
 20
17.65028211805555
 10
60.77250162760416
 20
17.65028211805555
 10
60.77250162760416
 20
18.06722005208333
 10
60.84486219618055
 20
18.06722005208333
 10
60.84486219618055
 20
17.65028211805555
  0
SPLINE
  5
7B
330
1CA
100
AcDbEntity
  8
Layer 1
370
     0
100
AcDbSpline
210
0.0
220
0.0
230
1.0
 70
    11
 71
     3
 72
    38
 73
    34
 74
     0
 42
0.000000001
 43
0.001
 40
0.0
 40
0.0
 40
0.0
 40
0.0
 40
1.0
 40
1.0
 40
1.0
 40
2.0
 40
2.0
 40
2.0
 40
3.0
 40
3.0
 40
3.0
 40
4.0
 40
4.0
 40
4.0
 40
5.0
 40
5.0
 40
5.0
 40
6.0
 40
6.0
 40
6.0
 40
7.0
 40
7.0
 40
7.0
 40
8.0
 40
8.0
 40
8.0
 40
9.0
 40
9.0
 40
9.0
 40
10.0
 40
10.0
 40
10.0
 40
11.0
 40
11.0
 40
11.0
 40
11.0
 10
61.18958875868055
 20
17.78082953559028
 30
0.0
 10
61.18360731336805
 20
17.75596788194444
 30
0.0
 10
61.17472330729166
 20
17.73361545138889
 30
0.0
 10
61.16292317708333
 20
17.71402994791666
 30
0.0
 10
61.15110948350694
 20
17.694580078125
 30
0.0
 10
61.13624403211805
 20
17.67902289496528
 30
0.0
 10
61.11819118923611
 20
17.66749403211805
 30
0.0
 10
61.10027398003472
 20
17.65597873263889
 30
0.0
 10
61.07999674479166
 20
17.65028211805555
 30
0.0
 10
61.05735948350694
 20
17.65028211805555
 30
0.0
 10
61.05735948350694
 20
17.65028211805555
 30
0.0
 10
60.91263834635416
 20
17.65028211805555
 30
0.0
 10
60.91263834635416
 20
17.65028211805555
 30
0.0
 10
60.91263834635416
 20
17.65028211805555
 30
0.0
 10
60.91263834635416
 20
18.06722005208333
 30
0.0
 10
60.91263834635416
 20
18.06722005208333
 30
0.0
 10
60.91263834635416
 20
18.06722005208333
 30
0.0
 10
61.05735948350694
 20
18.06722005208333
 30
0.0
 10
61.05735948350694
 20
18.06722005208333
 30
0.0
 10
61.08028157552083
 20
18.06722005208333
 30
0.0
 10
61.10069444444444
 20
18.0615234375
 30
0.0
 10
61.11847601996527
 20
18.05014377170139
 30
0.0
 10
61.13639322916666
 20
18.03861490885416
 30
0.0
 10
61.1512451171875
 20
18.02305772569444
 30
0.0
 10
61.16305881076389
 20
18.00347222222222
 30
0.0
 10
61.17485894097222
 20
17.98375108506944
 30
0.0
 10
61.18375651041666
 20
17.96138509114583
 30
0.0
 10
61.18972439236111
 20
17.93638780381944
 30
0.0
 10
61.195556640625
 20
17.91139051649305
 30
0.0
 10
61.1986083984375
 20
17.88528103298611
 30
0.0
 10
61.1986083984375
 20
17.85819498697916
 30
0.0
 10
61.1986083984375
 20
17.8316650390625
 30
0.0
 10
61.195556640625
 20
17.80582682291666
 30
0.0
 10
61.18958875868055
 20
17.78082953559028
 30
0.0
  0
ENDBLK
  5
1CC
330
1CA
100
AcDbEntity
  8
0
100
AcDbBlockEnd
  0
BLOCK
  5
1CE
330
1CD
100
AcDbEntity
  8
0
100
AcDbBlockBegin
  2
block 4
 70
     0
 10
0.0
 20
0.0
 30
0.0
  3
block 4
  1

  0
LWPOLYLINE
  5
87
330
1CD
100
AcDbEntity
  8
Layer 1
370
     0
100
AcDbPolyline
 90
        9
 70
     0
 43
0.0
 10
61.23988172743055
 20
18.04736328125
 10
61.22565375434027
 20
18.04736328125
 10
61.22565375434027
 20
18.057373046875
 10
61.26616753472222
 20
18.057373046875
 10
61.26616753472222
 20
18.04736328125
 10
61.25177680121527
 20
18.04736328125
 10
61.25177680121527
 20
18.004638671875
 10
61.23988172743055
 20
18.004638671875
 10
61.23988172743055
 20
18.04736328125
  0
HATCH
  5
92
330
1CD
100
AcDbEntity
  8
Layer 1
 62
     5
440
 33554687
100
AcDbHatch
 10
0.0
 20
0.0
 30
0.0
210
0.0
220
0.0
230
1.0
  2
SOLID
 70
     1
 71
     0
 91
        1
 92
        0
 93
        8
 72
     1
 10
61.23988172743055
 20
18.04736328125
 11
61.22565375434027
 21
18.04736328125
 72
     1
 10
61.22565375434027
 20
18.04736328125
 11
61.22565375434027
 21
18.057373046875
 72
     1
 10
61.22565375434027
 20
18.057373046875
 11
61.26616753472222
 21
18.057373046875
 72
     1
 10
61.26616753472222
 20
18.057373046875
 11
61.26616753472222
 21
18.04736328125
 72
     1
 10
61.26616753472222
 20
18.04736328125
 11
61.25177680121527
 21
18.04736328125
 72
     1
 10
61.25177680121527
 20
18.04736328125
 11
61.25177680121527
 21
18.004638671875
 72
     1
 10
61.25177680121527
 20
18.004638671875
 11
61.23988172743055
 21
18.004638671875
 72
     1
 10
61.23988172743055
 20
18.004638671875
 11
61.23988172743055
 21
18.04736328125
 97
        0
 75
     0
 76
     1
 98
        0
  0
SPLINE
  5
93
330
1CD
100
AcDbEntity
  8
Layer 1
370
     0
100
AcDbSpline
210
0.0
220
0.0
230
1.0
 70
    11
 71
     3
 72
    71
 73
    67
 74
     0
 42
0.000000001
 43
0.001
 40
0.0
 40
0.0
 40
0.0
 40
0.0
 40
1.0
 40
1.0
 40
1.0
 40
2.0
 40
2.0
 40
2.0
 40
3.0
 40
3.0
 40
3.0
 40
4.0
 40
4.0
 40
4.0
 40
5.0
 40
5.0
 40
5.0
 40
6.0
 40
6.0
 40
6.0
 40
7.0
 40
7.0
 40
7.0
 40
8.0
 40
8.0
 40
8.0
 40
9.0
 40
9.0
 40
9.0
 40
10.0
 40
10.0
 40
10.0
 40
11.0
 40
11.0
 40
11.0
 40
12.0
 40
12.0
 40
12.0
 40
13.0
 40
13.0
 40
13.0
 40
14.0
 40
14.0
 40
14.0
 40
15.0
 40
15.0
 40
15.0
 40
16.0
 40
16.0
 40
16.0
 40
17.0
 40
17.0
 40
17.0
 40
18.0
 40
18.0
 40
18.0
 40
19.0
 40
19.0
 40
19.0
 40
20.0
 40
20.0
 40
20.0
 40
21.0
 40
21.0
 40
21.0
 40
22.0
 40
22.0
 40
22.0
 40
22.0
 10
61.31678602430555
 20
18.02482096354166
 30
0.0
 10
61.31654188368055
 20
18.03119574652778
 30
0.0
 10
61.31629774305555
 20
18.03884548611111
 30
0.0
 10
61.31629774305555
 20
18.04649522569444
 30
0.0
 10
61.31629774305555
 20
18.04649522569444
 30
0.0
 10
61.316162109375
 20
18.04649522569444
 30
0.0
 10
61.316162109375
 20
18.04649522569444
 30
0.0
 10
61.31442599826389
 20
18.03976779513889
 30
0.0
 10
61.31222873263889
 20
18.03225368923611
 30
0.0
 10
61.31019422743055
 20
18.02606879340278
 30
0.0
 10
61.31019422743055
 20
18.02606879340278
 30
0.0
 10
61.30379231770833
 20
18.00550672743055
 30
0.0
 10
61.30379231770833
 20
18.00550672743055
 30
0.0
 10
61.30379231770833
 20
18.00550672743055
 30
0.0
 10
61.29448784722222
 20
18.00550672743055
 30
0.0
 10
61.29448784722222
 20
18.00550672743055
 30
0.0
 10
61.29448784722222
 20
18.00550672743055
 30
0.0
 10
61.28884548611111
 20
18.02585177951389
 30
0.0
 10
61.28884548611111
 20
18.02585177951389
 30
0.0
 10
61.287109375
 20
18.03211805555555
 30
0.0
 10
61.285400390625
 20
18.03963216145833
 30
0.0
 10
61.28407118055555
 20
18.04649522569444
 30
0.0
 10
61.28407118055555
 20
18.04649522569444
 30
0.0
 10
61.283935546875
 20
18.04649522569444
 30
0.0
 10
61.283935546875
 20
18.04649522569444
 30
0.0
 10
61.28369140625
 20
18.03938802083333
 30
0.0
 10
61.28336588541666
 20
18.03125
 30
0.0
 10
61.28306749131944
 20
18.02468532986111
 30
0.0
 10
61.28306749131944
 20
18.02468532986111
 30
0.0
 10
61.28203667534722
 20
18.004638671875
 30
0.0
 10
61.28203667534722
 20
18.004638671875
 30
0.0
 10
61.28203667534722
 20
18.004638671875
 30
0.0
 10
61.27099609375
 20
18.004638671875
 30
0.0
 10
61.27099609375
 20
18.004638671875
 30
0.0
 10
61.27099609375
 20
18.004638671875
 30
0.0
 10
61.27437337239583
 20
18.057373046875
 30
0.0
 10
61.27437337239583
 20
18.057373046875
 30
0.0
 10
61.27437337239583
 20
18.057373046875
 30
0.0
 10
61.29025607638889
 20
18.057373046875
 30
0.0
 10
61.29025607638889
 20
18.057373046875
 30
0.0
 10
61.29025607638889
 20
18.057373046875
 30
0.0
 10
61.29543728298611
 20
18.03976779513889
 30
0.0
 10
61.29543728298611
 20
18.03976779513889
 30
0.0
 10
61.29714626736111
 20
18.03369140625
 30
0.0
 10
61.29871961805555
 20
18.027099609375
 30
0.0
 10
61.29987250434027
 20
18.02094184027778
 30
0.0
 10
61.29987250434027
 20
18.02094184027778
 30
0.0
 10
61.30018446180555
 20
18.02094184027778
 30
0.0
 10
61.30018446180555
 20
18.02094184027778
 30
0.0
 10
61.30159505208333
 20
18.02701822916666
 30
0.0
 10
61.30338541666666
 20
18.03398980034722
 30
0.0
 10
61.30520290798611
 20
18.03987630208333
 30
0.0
 10
61.30520290798611
 20
18.03987630208333
 30
0.0
 10
61.31076388888889
 20
18.057373046875
 30
0.0
 10
61.31076388888889
 20
18.057373046875
 30
0.0
 10
61.31076388888889
 20
18.057373046875
 30
0.0
 10
61.32638888888889
 20
18.057373046875
 30
0.0
 10
61.32638888888889
 20
18.057373046875
 30
0.0
 10
61.32638888888889
 20
18.057373046875
 30
0.0
 10
61.3292236328125
 20
18.004638671875
 30
0.0
 10
61.3292236328125
 20
18.004638671875
 30
0.0
 10
61.3292236328125
 20
18.004638671875
 30
0.0
 10
61.317626953125
 20
18.004638671875
 30
0.0
 10
61.317626953125
 20
18.004638671875
 30
0.0
 10
61.317626953125
 20
18.004638671875
 30
0.0
 10
61.31678602430555
 20
18.02482096354166
 30
0.0
 10
61.31678602430555
 20
18.02482096354166
 30
0.0
  0
HATCH
  5
94
330
1CD
100
AcDbEntity
  8
Layer 1
 62
     5
440
 33554687
100
AcDbHatch
 10
0.0
 20
0.0
 30
0.0
210
0.0
220
0.0
230
1.0
  2
SOLID
 70
     1
 71
     0
 91
        1
 92
        0
 93
        1
 72
     4
 94
        3
 73
     0
 74
     0
 95
       71
 96
       67
 40
0.0
 40
0.0
 40
0.0
 40
0.0
 40
1.0
 40
1.0
 40
1.0
 40
2.0
 40
2.0
 40
2.0
 40
3.0
 40
3.0
 40
3.0
 40
4.0
 40
4.0
 40
4.0
 40
5.0
 40
5.0
 40
5.0
 40
6.0
 40
6.0
 40
6.0
 40
7.0
 40
7.0
 40
7.0
 40
8.0
 40
8.0
 40
8.0
 40
9.0
 40
9.0
 40
9.0
 40
10.0
 40
10.0
 40
10.0
 40
11.0
 40
11.0
 40
11.0
 40
12.0
 40
12.0
 40
12.0
 40
13.0
 40
13.0
 40
13.0
 40
14.0
 40
14.0
 40
14.0
 40
15.0
 40
15.0
 40
15.0
 40
16.0
 40
16.0
 40
16.0
 40
17.0
 40
17.0
 40
17.0
 40
18.0
 40
18.0
 40
18.0
 40
19.0
 40
19.0
 40
19.0
 40
20.0
 40
20.0
 40
20.0
 40
21.0
 40
21.0
 40
21.0
 40
22.0
 40
22.0
 40
22.0
 40
22.0
 10
61.31678602430555
 20
18.02482096354166
 10
61.31654188368055
 20
18.03119574652778
 10
61.31629774305555
 20
18.03884548611111
 10
61.31629774305555
 20
18.04649522569444
 10
61.31629774305555
 20
18.04649522569444
 10
61.316162109375
 20
18.04649522569444
 10
61.316162109375
 20
18.04649522569444
 10
61.31442599826389
 20
18.03976779513889
 10
61.31222873263889
 20
18.03225368923611
 10
61.31019422743055
 20
18.02606879340278
 10
61.31019422743055
 20
18.02606879340278
 10
61.30379231770833
 20
18.00550672743055
 10
61.30379231770833
 20
18.00550672743055
 10
61.30379231770833
 20
18.00550672743055
 10
61.29448784722222
 20
18.00550672743055
 10
61.29448784722222
 20
18.00550672743055
 10
61.29448784722222
 20
18.00550672743055
 10
61.28884548611111
 20
18.02585177951389
 10
61.28884548611111
 20
18.02585177951389
 10
61.287109375
 20
18.03211805555555
 10
61.285400390625
 20
18.03963216145833
 10
61.28407118055555
 20
18.04649522569444
 10
61.28407118055555
 20
18.04649522569444
 10
61.283935546875
 20
18.04649522569444
 10
61.283935546875
 20
18.04649522569444
 10
61.28369140625
 20
18.03938802083333
 10
61.28336588541666
 20
18.03125
 10
61.28306749131944
 20
18.02468532986111
 10
61.28306749131944
 20
18.02468532986111
 10
61.28203667534722
 20
18.004638671875
 10
61.28203667534722
 20
18.004638671875
 10
61.28203667534722
 20
18.004638671875
 10
61.27099609375
 20
18.004638671875
 10
61.27099609375
 20
18.004638671875
 10
61.27099609375
 20
18.004638671875
 10
61.27437337239583
 20
18.057373046875
 10
61.27437337239583
 20
18.057373046875
 10
61.27437337239583
 20
18.057373046875
 10
61.29025607638889
 20
18.057373046875
 10
61.29025607638889
 20
18.057373046875
 10
61.29025607638889
 20
18.057373046875
 10
61.29543728298611
 20
18.03976779513889
 10
61.29543728298611
 20
18.03976779513889
 10
61.29714626736111
 20
18.03369140625
 10
61.29871961805555
 20
18.027099609375
 10
61.29987250434027
 20
18.02094184027778
 10
61.29987250434027
 20
18.02094184027778
 10
61.30018446180555
 20
18.02094184027778
 10
61.30018446180555
 20
18.02094184027778
 10
61.30159505208333
 20
18.02701822916666
 10
61.30338541666666
 20
18.03398980034722
 10
61.30520290798611
 20
18.03987630208333
 10
61.30520290798611
 20
18.03987630208333
 10
61.31076388888889
 20
18.057373046875
 10
61.31076388888889
 20
18.057373046875
 10
61.31076388888889
 20
18.057373046875
 10
61.32638888888889
 20
18.057373046875
 10
61.32638888888889
 20
18.057373046875
 10
61.32638888888889
 20
18.057373046875
 10
61.3292236328125
 20
18.004638671875
 10
61.3292236328125
 20
18.004638671875
 10
61.3292236328125
 20
18.004638671875
 10
61.317626953125
 20
18.004638671875
 10
61.317626953125
 20
18.004638671875
 10
61.317626953125
 20
18.004638671875
 10
61.31678602430555
 20
18.02482096354166
 10
61.31678602430555
 20
18.02482096354166
 97
        0
 97
        0
 75
     0
 76
     1
 98
        0
  0
ENDBLK
  5
1CF
330
1CD
100
AcDbEntity
  8
0
100
AcDbBlockEnd
  0
BLOCK
  5
1D1
330
1D0
100
AcDbEntity
  8
0
100
AcDbBlockBegin
  2
block 5
 70
     0
 10
0.0
 20
0.0
 30
0.0
  3
block 5
  1

  0
SPLINE
  5
A0
330
1D0
100
AcDbEntity
  8
Layer 1
370
     0
100
AcDbSpline
210
0.0
220
0.0
230
1.0
 70
    11
 71
     3
 72
    47
 73
    43
 74
     0
 42
0.000000001
 43
0.001
 40
0.0
 40
0.0
 40
0.0
 40
0.0
 40
1.0
 40
1.0
 40
1.0
 40
2.0
 40
2.0
 40
2.0
 40
3.0
 40
3.0
 40
3.0
 40
4.0
 40
4.0
 40
4.0
 40
5.0
 40
5.0
 40
5.0
 40
6.0
 40
6.0
 40
6.0
 40
7.0
 40
7.0
 40
7.0
 40
8.0
 40
8.0
 40
8.0
 40
9.0
 40
9.0
 40
9.0
 40
10.0
 40
10.0
 40
10.0
 40
11.0
 40
11.0
 40
11.0
 40
12.0
 40
12.0
 40
12.0
 40
13.0
 40
13.0
 40
13.0
 40
14.0
 40
14.0
 40
14.0
 40
14.0
 10
56.03135850694444
 20
15.60256618923611
 30
0.0
 10
56.03135850694444
 20
15.60256618923611
 30
0.0
 10
56.03278266059027
 20
15.60400390625
 30
0.0
 10
56.03278266059027
 20
15.60400390625
 30
0.0
 10
56.03278266059027
 20
15.60400390625
 30
0.0
 10
56.02886284722222
 20
15.95855034722222
 30
0.0
 10
56.02886284722222
 20
15.95855034722222
 30
0.0
 10
56.02886284722222
 20
15.95855034722222
 30
0.0
 10
55.98021104600694
 20
15.90889485677083
 30
0.0
 10
55.98021104600694
 20
15.90889485677083
 30
0.0
 10
55.85710991753472
 20
16.02874077690972
 30
0.0
 10
55.68900553385416
 20
16.10259331597222
 30
0.0
 10
55.50362141927083
 20
16.10259331597222
 30
0.0
 10
55.12624782986111
 20
16.10259331597222
 30
0.0
 10
54.8203125
 20
15.79665798611111
 30
0.0
 10
54.8203125
 20
15.41927083333333
 30
0.0
 10
54.8203125
 20
15.04193793402778
 30
0.0
 10
55.12624782986111
 20
14.73600260416667
 30
0.0
 10
55.50362141927083
 20
14.73600260416667
 30
0.0
 10
55.69831000434027
 20
14.73600260416667
 30
0.0
 10
55.87395562065972
 20
14.81745062934028
 30
0.0
 10
55.9984130859375
 20
14.94807942708333
 30
0.0
 10
55.9984130859375
 20
14.94807942708333
 30
0.0
 10
55.74726019965277
 20
15.18448893229167
 30
0.0
 10
55.74726019965277
 20
15.18448893229167
 30
0.0
 10
55.68572319878472
 20
15.12063259548611
 30
0.0
 10
55.59932454427083
 20
15.08091905381944
 30
0.0
 10
55.50362141927083
 20
15.08091905381944
 30
0.0
 10
55.31673177083333
 20
15.08091905381944
 30
0.0
 10
55.16524251302083
 20
15.23240831163194
 30
0.0
 10
55.16524251302083
 20
15.41927083333333
 30
0.0
 10
55.16524251302083
 20
15.60617404513889
 30
0.0
 10
55.31673177083333
 20
15.75771755642361
 30
0.0
 10
55.50362141927083
 20
15.75771755642361
 30
0.0
 10
55.59502495659722
 20
15.75771755642361
 30
0.0
 10
55.67792426215277
 20
15.721435546875
 30
0.0
 10
55.73883734809027
 20
15.66254340277778
 30
0.0
 10
55.73883734809027
 20
15.66254340277778
 30
0.0
 10
55.6754150390625
 20
15.59788682725694
 30
0.0
 10
55.6754150390625
 20
15.59788682725694
 30
0.0
 10
55.6754150390625
 20
15.59788682725694
 30
0.0
 10
56.03135850694444
 20
15.60256618923611
 30
0.0
 10
56.03135850694444
 20
15.60256618923611
 30
0.0
  0
HATCH
  5
A1
330
1D0
100
AcDbEntity
  8
Layer 1
 62
     5
440
 33554687
100
AcDbHatch
 10
0.0
 20
0.0
 30
0.0
210
0.0
220
0.0
230
1.0
  2
SOLID
 70
     1
 71
     0
 91
        1
 92
        0
 93
        1
 72
     4
 94
        3
 73
     0
 74
     0
 95
       47
 96
       43
 40
0.0
 40
0.0
 40
0.0
 40
0.0
 40
1.0
 40
1.0
 40
1.0
 40
2.0
 40
2.0
 40
2.0
 40
3.0
 40
3.0
 40
3.0
 40
4.0
 40
4.0
 40
4.0
 40
5.0
 40
5.0
 40
5.0
 40
6.0
 40
6.0
 40
6.0
 40
7.0
 40
7.0
 40
7.0
 40
8.0
 40
8.0
 40
8.0
 40
9.0
 40
9.0
 40
9.0
 40
10.0
 40
10.0
 40
10.0
 40
11.0
 40
11.0
 40
11.0
 40
12.0
 40
12.0
 40
12.0
 40
13.0
 40
13.0
 40
13.0
 40
14.0
 40
14.0
 40
14.0
 40
14.0
 10
56.03135850694444
 20
15.60256618923611
 10
56.03135850694444
 20
15.60256618923611
 10
56.03278266059027
 20
15.60400390625
 10
56.03278266059027
 20
15.60400390625
 10
56.03278266059027
 20
15.60400390625
 10
56.02886284722222
 20
15.95855034722222
 10
56.02886284722222
 20
15.95855034722222
 10
56.02886284722222
 20
15.95855034722222
 10
55.98021104600694
 20
15.90889485677083
 10
55.98021104600694
 20
15.90889485677083
 10
55.85710991753472
 20
16.02874077690972
 10
55.68900553385416
 20
16.10259331597222
 10
55.50362141927083
 20
16.10259331597222
 10
55.12624782986111
 20
16.10259331597222
 10
54.8203125
 20
15.79665798611111
 10
54.8203125
 20
15.41927083333333
 10
54.8203125
 20
15.04193793402778
 10
55.12624782986111
 20
14.73600260416667
 10
55.50362141927083
 20
14.73600260416667
 10
55.69831000434027
 20
14.73600260416667
 10
55.87395562065972
 20
14.81745062934028
 10
55.9984130859375
 20
14.94807942708333
 10
55.9984130859375
 20
14.94807942708333
 10
55.74726019965277
 20
15.18448893229167
 10
55.74726019965277
 20
15.18448893229167
 10
55.68572319878472
 20
15.12063259548611
 10
55.59932454427083
 20
15.08091905381944
 10
55.50362141927083
 20
15.08091905381944
 10
55.31673177083333
 20
15.08091905381944
 10
55.16524251302083
 20
15.23240831163194
 10
55.16524251302083
 20
15.41927083333333
 10
55.16524251302083
 20
15.60617404513889
 10
55.31673177083333
 20
15.75771755642361
 10
55.50362141927083
 20
15.75771755642361
 10
55.59502495659722
 20
15.75771755642361
 10
55.67792426215277
 20
15.721435546875
 10
55.73883734809027
 20
15.66254340277778
 10
55.73883734809027
 20
15.66254340277778
 10
55.6754150390625
 20
15.59788682725694
 10
55.6754150390625
 20
15.59788682725694
 10
55.6754150390625
 20
15.59788682725694
 10
56.03135850694444
 20
15.60256618923611
 10
56.03135850694444
 20
15.60256618923611
 97
        0
 97
        0
 75
     0
 76
     1
 98
        0
  0
SPLINE
  5
A2
330
1D0
100
AcDbEntity
  8
Layer 1
370
     0
100
AcDbSpline
210
0.0
220
0.0
230
1.0
 70
    11
 71
     3
 72
    29
 73
    25
 74
     0
 42
0.000000001
 43
0.001
 40
0.0
 40
0.0
 40
0.0
 40
0.0
 40
1.0
 40
1.0
 40
1.0
 40
2.0
 40
2.0
 40
2.0
 40
3.0
 40
3.0
 40
3.0
 40
4.0
 40
4.0
 40
4.0
 40
5.0
 40
5.0
 40
5.0
 40
6.0
 40
6.0
 40
6.0
 40
7.0
 40
7.0
 40
7.0
 40
8.0
 40
8.0
 40
8.0
 40
8.0
 10
56.29767523871527
 20
16.43123372395833
 30
0.0
 10
56.42032877604166
 20
16.43123372395833
 30
0.0
 10
56.51978895399305
 20
16.331787109375
 30
0.0
 10
56.51978895399305
 20
16.20916069878472
 30
0.0
 10
56.51978895399305
 20
16.20916069878472
 30
0.0
 10
56.51978895399305
 20
14.62947591145833
 30
0.0
 10
56.51978895399305
 20
14.62947591145833
 30
0.0
 10
56.51978895399305
 20
14.50676812065972
 30
0.0
 10
56.42032877604166
 20
14.40738932291667
 30
0.0
 10
56.29767523871527
 20
14.40738932291667
 30
0.0
 10
56.29767523871527
 20
14.40738932291667
 30
0.0
 10
54.70956081814236
 20
14.40738932291667
 30
0.0
 10
54.70956081814236
 20
14.40738932291667
 30
0.0
 10
54.58688693576389
 20
14.40738932291667
 30
0.0
 10
54.48745388454861
 20
14.50676812065972
 30
0.0
 10
54.48745388454861
 20
14.62947591145833
 30
0.0
 10
54.48745388454861
 20
14.62947591145833
 30
0.0
 10
54.48745388454861
 20
16.20916069878472
 30
0.0
 10
54.48745388454861
 20
16.20916069878472
 30
0.0
 10
54.48745388454861
 20
16.331787109375
 30
0.0
 10
54.58688693576389
 20
16.43123372395833
 30
0.0
 10
54.70956081814236
 20
16.43123372395833
 30
0.0
 10
54.70956081814236
 20
16.43123372395833
 30
0.0
 10
56.29767523871527
 20
16.43123372395833
 30
0.0
 10
56.29767523871527
 20
16.43123372395833
 30
0.0
  0
SPLINE
  5
A3
330
1D0
100
AcDbEntity
  8
Layer 1
370
     0
100
AcDbSpline
210
0.0
220
0.0
230
1.0
 70
    11
 71
     3
 72
    17
 73
    13
 74
     0
 42
0.000000001
 43
0.001
 40
0.0
 40
0.0
 40
0.0
 40
0.0
 40
1.0
 40
1.0
 40
1.0
 40
2.0
 40
2.0
 40
2.0
 40
3.0
 40
3.0
 40
3.0
 40
4.0
 40
4.0
 40
4.0
 40
4.0
 10
55.50362141927083
 20
16.25250922309028
 30
0.0
 10
55.04342990451389
 20
16.25250922309028
 30
0.0
 10
54.67042371961805
 20
15.87944878472222
 30
0.0
 10
54.67042371961805
 20
15.41927083333333
 30
0.0
 10
54.67042371961805
 20
14.95912000868056
 30
0.0
 10
55.04342990451389
 20
14.58608669704861
 30
0.0
 10
55.50362141927083
 20
14.58608669704861
 30
0.0
 10
55.96379937065972
 20
14.58608669704861
 30
0.0
 10
56.33680555555555
 20
14.95912000868056
 30
0.0
 10
56.33680555555555
 20
15.41927083333333
 30
0.0
 10
56.33680555555555
 20
15.87944878472222
 30
0.0
 10
55.96379937065972
 20
16.25250922309028
 30
0.0
 10
55.50362141927083
 20
16.25250922309028
 30
0.0
  0
HATCH
  5
A4
330
1D0
100
AcDbEntity
  8
Layer 1
 62
     5
440
 33554687
100
AcDbHatch
 10
0.0
 20
0.0
 30
0.0
210
0.0
220
0.0
230
1.0
  2
SOLID
 70
     1
 71
     0
 91
        2
 92
        0
 93
        1
 72
     4
 94
        3
 73
     0
 74
     0
 95
       29
 96
       25
 40
0.0
 40
0.0
 40
0.0
 40
0.0
 40
1.0
 40
1.0
 40
1.0
 40
2.0
 40
2.0
 40
2.0
 40
3.0
 40
3.0
 40
3.0
 40
4.0
 40
4.0
 40
4.0
 40
5.0
 40
5.0
 40
5.0
 40
6.0
 40
6.0
 40
6.0
 40
7.0
 40
7.0
 40
7.0
 40
8.0
 40
8.0
 40
8.0
 40
8.0
 10
56.29767523871527
 20
16.43123372395833
 10
56.42032877604166
 20
16.43123372395833
 10
56.51978895399305
 20
16.331787109375
 10
56.51978895399305
 20
16.20916069878472
 10
56.51978895399305
 20
16.20916069878472
 10
56.51978895399305
 20
14.62947591145833
 10
56.51978895399305
 20
14.62947591145833
 10
56.51978895399305
 20
14.50676812065972
 10
56.42032877604166
 20
14.40738932291667
 10
56.29767523871527
 20
14.40738932291667
 10
56.29767523871527
 20
14.40738932291667
 10
54.70956081814236
 20
14.40738932291667
 10
54.70956081814236
 20
14.40738932291667
 10
54.58688693576389
 20
14.40738932291667
 10
54.48745388454861
 20
14.50676812065972
 10
54.48745388454861
 20
14.62947591145833
 10
54.48745388454861
 20
14.62947591145833
 10
54.48745388454861
 20
16.20916069878472
 10
54.48745388454861
 20
16.20916069878472
 10
54.48745388454861
 20
16.331787109375
 10
54.58688693576389
 20
16.43123372395833
 10
54.70956081814236
 20
16.43123372395833
 10
54.70956081814236
 20
16.43123372395833
 10
56.29767523871527
 20
16.43123372395833
 10
56.29767523871527
 20
16.43123372395833
 97
        0
 97
        0
 92
        0
 93
        1
 72
     4
 94
        3
 73
     0
 74
     0
 95
       17
 96
       13
 40
0.0
 40
0.0
 40
0.0
 40
0.0
 40
1.0
 40
1.0
 40
1.0
 40
2.0
 40
2.0
 40
2.0
 40
3.0
 40
3.0
 40
3.0
 40
4.0
 40
4.0
 40
4.0
 40
4.0
 10
55.50362141927083
 20
16.25250922309028
 10
55.04342990451389
 20
16.25250922309028
 10
54.67042371961805
 20
15.87944878472222
 10
54.67042371961805
 20
15.41927083333333
 10
54.67042371961805
 20
14.95912000868056
 10
55.04342990451389
 20
14.58608669704861
 10
55.50362141927083
 20
14.58608669704861
 10
55.96379937065972
 20
14.58608669704861
 10
56.33680555555555
 20
14.95912000868056
 10
56.33680555555555
 20
15.41927083333333
 10
56.33680555555555
 20
15.87944878472222
 10
55.96379937065972
 20
16.25250922309028
 10
55.50362141927083
 20
16.25250922309028
 97
        0
 97
        0
 75
     0
 76
     1
 98
        0
  0
ENDBLK
  5
1D2
330
1D0
100
AcDbEntity
  8
0
100
AcDbBlockEnd
  0
BLOCK
  5
1D4
330
1D3
100
AcDbEntity
  8
0
100
AcDbBlockBegin
  2
block 6
 70
     0
 10
0.0
 20
0.0
 30
0.0
  3
block 6
  1

  0
INSERT
  5
AC
330
1D3
100
AcDbEntity
  8
Layer 1
100
AcDbBlockReference
  2
block 7
 10
0.0
 20
0.0
 30
0.0
  0
ENDBLK
  5
1D5
330
1D3
100
AcDbEntity
  8
0
100
AcDbBlockEnd
  0
BLOCK
  5
1D7
330
1D6
100
AcDbEntity
  8
0
100
AcDbBlockBegin
  2
block 7
 70
     0
 10
0.0
 20
0.0
 30
0.0
  3
block 7
  1

  0
SPLINE
  5
AF
330
1D6
100
AcDbEntity
  8
Layer 1
370
     0
100
AcDbSpline
210
0.0
220
0.0
230
1.0
 70
    11
 71
     3
 72
    95
 73
    91
 74
     0
 42
0.000000001
 43
0.001
 40
0.0
 40
0.0
 40
0.0
 40
0.0
 40
1.0
 40
1.0
 40
1.0
 40
2.0
 40
2.0
 40
2.0
 40
3.0
 40
3.0
 40
3.0
 40
4.0
 40
4.0
 40
4.0
 40
5.0
 40
5.0
 40
5.0
 40
6.0
 40
6.0
 40
6.0
 40
7.0
 40
7.0
 40
7.0
 40
8.0
 40
8.0
 40
8.0
 40
9.0
 40
9.0
 40
9.0
 40
10.0
 40
10.0
 40
10.0
 40
11.0
 40
11.0
 40
11.0
 40
12.0
 40
12.0
 40
12.0
 40
13.0
 40
13.0
 40
13.0
 40
14.0
 40
14.0
 40
14.0
 40
15.0
 40
15.0
 40
15.0
 40
16.0
 40
16.0
 40
16.0
 40
17.0
 40
17.0
 40
17.0
 40
18.0
 40
18.0
 40
18.0
 40
19.0
 40
19.0
 40
19.0
 40
20.0
 40
20.0
 40
20.0
 40
21.0
 40
21.0
 40
21.0
 40
22.0
 40
22.0
 40
22.0
 40
23.0
 40
23.0
 40
23.0
 40
24.0
 40
24.0
 40
24.0
 40
25.0
 40
25.0
 40
25.0
 40
26.0
 40
26.0
 40
26.0
 40
27.0
 40
27.0
 40
27.0
 40
28.0
 40
28.0
 40
28.0
 40
29.0
 40
29.0
 40
29.0
 40
30.0
 40
30.0
 40
30.0
 40
30.0
 10
57.5633544921875
 20
15.38943142361111
 30
0.0
 10
57.5633544921875
 20
15.470947265625
 30
0.0
 10
57.57187228732639
 20
15.55178493923611
 30
0.0
 10
57.58892144097222
 20
15.63197157118056
 30
0.0
 10
57.60597059461805
 20
15.712158203125
 30
0.0
 10
57.63382975260416
 20
15.78605143229167
 30
0.0
 10
57.67251247829861
 20
15.8536376953125
 30
0.0
 10
57.71119520399305
 20
15.92122395833333
 30
0.0
 10
57.76344129774305
 20
15.97547743055556
 30
0.0
 10
57.82925075954861
 20
16.01638454861111
 30
0.0
 10
57.89506022135416
 20
16.05729166666666
 30
0.0
 10
57.97465006510416
 20
16.07774522569444
 30
0.0
 10
58.06803385416666
 20
16.07774522569444
 30
0.0
 10
58.08730740017361
 20
16.07774522569444
 30
0.0
 10
58.10182020399305
 20
16.0771484375
 30
0.0
 10
58.11161295572916
 20
16.07595486111111
 30
0.0
 10
58.16525607638889
 20
16.07240125868055
 30
0.0
 10
58.21721733940972
 20
16.05759006076389
 30
0.0
 10
58.2674560546875
 20
16.031494140625
 30
0.0
 10
58.31769476996527
 20
16.00539822048611
 30
0.0
 10
58.36239963107639
 20
15.97048611111111
 30
0.0
 10
58.40151638454861
 20
15.92674424913194
 30
0.0
 10
58.44064670138889
 20
15.88300238715278
 30
0.0
 10
58.47161187065972
 20
15.831787109375
 30
0.0
 10
58.49445258246527
 20
15.77308485243056
 30
0.0
 10
58.51726616753472
 20
15.71438259548611
 30
0.0
 10
58.5286865234375
 20
15.65196397569444
 30
0.0
 10
58.5286865234375
 20
15.58582899305556
 30
0.0
 10
58.5286865234375
 20
15.58582899305556
 30
0.0
 10
58.30635579427083
 20
15.58582899305556
 30
0.0
 10
58.30635579427083
 20
15.58582899305556
 30
0.0
 10
58.29717339409722
 20
15.65997992621528
 30
0.0
 10
58.27323404947916
 20
15.72226291232639
 30
0.0
 10
58.23455132378472
 20
15.77267795138889
 30
0.0
 10
58.19586859809027
 20
15.82309299045139
 30
0.0
 10
58.13962131076389
 20
15.84830729166667
 30
0.0
 10
58.06580946180555
 20
15.84830729166667
 30
0.0
 10
58.00473361545139
 20
15.84711371527778
 30
0.0
 10
57.95293511284722
 20
15.82486979166667
 30
0.0
 10
57.910400390625
 20
15.78157552083333
 30
0.0
 10
57.86786566840277
 20
15.73828125
 30
0.0
 10
57.83614095052083
 20
15.681396484375
 30
0.0
 10
57.81525336371527
 20
15.6109619140625
 30
0.0
 10
57.79435221354166
 20
15.54052734375
 30
0.0
 10
57.78389485677083
 20
15.46541341145833
 30
0.0
 10
57.78389485677083
 20
15.38564724392361
 30
0.0
 10
57.78538682725694
 20
15.30645073784722
 30
0.0
 10
57.79702419704861
 20
15.23223198784722
 30
0.0
 10
57.81880696614583
 20
15.16297743055556
 30
0.0
 10
57.84060329861111
 20
15.09372287326389
 30
0.0
 10
57.87238226996527
 20
15.03761121961806
 30
0.0
 10
57.9141845703125
 20
14.99460177951389
 30
0.0
 10
57.95598687065972
 20
14.95160590277778
 30
0.0
 10
58.00533040364583
 20
14.93009440104167
 30
0.0
 10
58.06224229600694
 20
14.93009440104167
 30
0.0
 10
58.10671657986111
 20
14.93009440104167
 30
0.0
 10
58.14651150173611
 20
14.94070095486111
 30
0.0
 10
58.181640625
 20
14.9619140625
 30
0.0
 10
58.21676974826389
 20
14.98311360677083
 30
0.0
 10
58.24522569444444
 20
15.01209852430556
 30
0.0
 10
58.26702202690972
 20
15.04888237847222
 30
0.0
 10
58.28880479600694
 20
15.08565266927083
 30
0.0
 10
58.3031005859375
 20
15.12673611111111
 30
0.0
 10
58.30992296006944
 20
15.172119140625
 30
0.0
 10
58.30992296006944
 20
15.172119140625
 30
0.0
 10
58.54158528645833
 20
15.172119140625
 30
0.0
 10
58.54158528645833
 20
15.172119140625
 30
0.0
 10
58.53831651475694
 20
15.11878797743056
 30
0.0
 10
58.52667914496527
 20
15.06487358940972
 30
0.0
 10
58.50668674045139
 20
15.01036241319444
 30
0.0
 10
58.48666720920139
 20
14.95586480034722
 30
0.0
 10
58.45694986979166
 20
14.9049072265625
 30
0.0
 10
58.41752115885416
 20
14.85750325520833
 30
0.0
 10
58.37810601128472
 20
14.81011284722222
 30
0.0
 10
58.32762315538194
 20
14.77182345920139
 30
0.0
 10
58.26612684461805
 20
14.74264865451389
 30
0.0
 10
58.20460340711805
 20
14.71347384982639
 30
0.0
 10
58.13309733072916
 20
14.69887966579861
 30
0.0
 10
58.05158148871527
 20
14.69887966579861
 30
0.0
 10
57.9605712890625
 20
14.69887966579861
 30
0.0
 10
57.88312445746527
 20
14.72001139322917
 30
0.0
 10
57.81924099392361
 20
14.76224772135417
 30
0.0
 10
57.75535753038194
 20
14.80449761284722
 30
0.0
 10
57.70467122395833
 20
14.8603515625
 30
0.0
 10
57.66718207465277
 20
14.92987738715278
 30
0.0
 10
57.62967936197916
 20
14.9993896484375
 30
0.0
 10
57.60300021701389
 20
15.07378472222222
 30
0.0
 10
57.58714463975694
 20
15.15310329861111
 30
0.0
 10
57.57127549913194
 20
15.23239474826389
 30
0.0
 10
57.5633544921875
 20
15.31117078993056
 30
0.0
 10
57.5633544921875
 20
15.38943142361111
 30
0.0
  0
LWPOLYLINE
  5
B0
330
1D6
100
AcDbEntity
  8
Layer 1
370
     0
100
AcDbPolyline
 90
       13
 70
     0
 43
0.0
 10
58.69988335503472
 20
14.72823079427083
 10
58.69988335503472
 20
16.06129286024305
 10
59.50291612413194
 20
16.06129286024305
 10
59.50291612413194
 20
15.82073296440972
 10
58.94399685329861
 20
15.82073296440972
 10
58.94399685329861
 20
15.54593912760417
 10
59.45933702256944
 20
15.54593912760417
 10
59.45933702256944
 20
15.300048828125
 10
58.94399685329861
 20
15.300048828125
 10
58.94399685329861
 20
14.97412109375
 10
59.53226725260416
 20
14.97412109375
 10
59.53226725260416
 20
14.72823079427083
 10
58.69988335503472
 20
14.72823079427083
  0
LWPOLYLINE
  5
BF
330
1D6
100
AcDbEntity
  8
Layer 1
370
     0
100
AcDbPolyline
 90
       11
 70
     0
 43
0.0
 10
59.65987141927083
 20
14.72823079427083
 10
59.65987141927083
 20
16.06129286024305
 10
59.89109971788194
 20
16.06129286024305
 10
60.33530002170139
 20
15.158203125
 10
60.33530002170139
 20
16.06129286024305
 10
60.56296115451389
 20
16.06129286024305
 10
60.56296115451389
 20
14.72823079427083
 10
60.33530002170139
 20
14.72823079427083
 10
59.89109971788194
 20
15.64599609375
 10
59.89109971788194
 20
14.72823079427083
 10
59.65987141927083
 20
14.72823079427083
  0
LWPOLYLINE
  5
CC
330
1D6
100
AcDbEntity
  8
Layer 1
370
     0
100
AcDbPolyline
 90
        9
 70
     0
 43
0.0
 10
60.99648708767361
 20
14.72823079427083
 10
60.99648708767361
 20
15.82073296440972
 10
60.66700575086805
 20
15.82073296440972
 10
60.66700575086805
 20
16.06129286024305
 10
61.54119194878472
 20
16.06129286024305
 10
61.54119194878472
 20
15.82073296440972
 10
61.22414822048611
 20
15.82073296440972
 10
61.22414822048611
 20
14.72823079427083
 10
60.99648708767361
 20
14.72823079427083
  0
SPLINE
  5
D7
330
1D6
100
AcDbEntity
  8
Layer 1
370
     0
100
AcDbSpline
210
0.0
220
0.0
230
1.0
 70
    11
 71
     3
 72
    77
 73
    73
 74
     0
 42
0.000000001
 43
0.001
 40
0.0
 40
0.0
 40
0.0
 40
0.0
 40
1.0
 40
1.0
 40
1.0
 40
2.0
 40
2.0
 40
2.0
 40
3.0
 40
3.0
 40
3.0
 40
4.0
 40
4.0
 40
4.0
 40
5.0
 40
5.0
 40
5.0
 40
6.0
 40
6.0
 40
6.0
 40
7.0
 40
7.0
 40
7.0
 40
8.0
 40
8.0
 40
8.0
 40
9.0
 40
9.0
 40
9.0
 40
10.0
 40
10.0
 40
10.0
 40
11.0
 40
11.0
 40
11.0
 40
12.0
 40
12.0
 40
12.0
 40
13.0
 40
13.0
 40
13.0
 40
14.0
 40
14.0
 40
14.0
 40
15.0
 40
15.0
 40
15.0
 40
16.0
 40
16.0
 40
16.0
 40
17.0
 40
17.0
 40
17.0
 40
18.0
 40
18.0
 40
18.0
 40
19.0
 40
19.0
 40
19.0
 40
20.0
 40
20.0
 40
20.0
 40
21.0
 40
21.0
 40
21.0
 40
22.0
 40
22.0
 40
22.0
 40
23.0
 40
23.0
 40
23.0
 40
24.0
 40
24.0
 40
24.0
 40
24.0
 10
61.67012532552083
 20
14.72823079427083
 30
0.0
 10
61.67012532552083
 20
14.72823079427083
 30
0.0
 10
61.67012532552083
 20
16.06129286024305
 30
0.0
 10
61.67012532552083
 20
16.06129286024305
 30
0.0
 10
61.67012532552083
 20
16.06129286024305
 30
0.0
 10
62.28952365451389
 20
16.06129286024305
 30
0.0
 10
62.28952365451389
 20
16.06129286024305
 30
0.0
 10
62.33161078559027
 20
16.06129286024305
 30
0.0
 10
62.37059190538194
 20
16.05202907986111
 30
0.0
 10
62.40646701388889
 20
16.03350151909722
 30
0.0
 10
62.44232855902777
 20
16.01497395833333
 30
0.0
 10
62.47294108072916
 20
15.9896240234375
 30
0.0
 10
62.498291015625
 20
15.95746527777778
 30
0.0
 10
62.52362738715277
 20
15.92529296875
 30
0.0
 10
62.54311794704861
 20
15.88817003038194
 30
0.0
 10
62.5567626953125
 20
15.84608289930556
 30
0.0
 10
62.57039388020833
 20
15.80398220486111
 30
0.0
 10
62.57721625434027
 20
15.75981987847222
 30
0.0
 10
62.57721625434027
 20
15.71356879340278
 30
0.0
 10
62.57721625434027
 20
15.64865451388889
 30
0.0
 10
62.56254069010416
 20
15.58633083767361
 30
0.0
 10
62.53318956163194
 20
15.52659776475694
 30
0.0
 10
62.50385199652777
 20
15.46686469184028
 30
0.0
 10
62.46027289496527
 20
15.416259765625
 30
0.0
 10
62.4024658203125
 20
15.374755859375
 30
0.0
 10
62.41876898871527
 20
15.36941189236111
 30
0.0
 10
62.4356689453125
 20
15.35918511284722
 30
0.0
 10
62.45315212673611
 20
15.34407552083333
 30
0.0
 10
62.47064887152777
 20
15.32895236545139
 30
0.0
 10
62.48569064670139
 20
15.30908203125
 30
0.0
 10
62.498291015625
 20
15.28447808159722
 30
0.0
 10
62.51089138454861
 20
15.25987413194444
 30
0.0
 10
62.51718478732639
 20
15.23231336805556
 30
0.0
 10
62.51718478732639
 20
15.2017822265625
 30
0.0
 10
62.51718478732639
 20
15.2017822265625
 30
0.0
 10
62.53008355034722
 20
14.90298122829861
 30
0.0
 10
62.53008355034722
 20
14.90298122829861
 30
0.0
 10
62.53008355034722
 20
14.87481011284722
 30
0.0
 10
62.53519694010416
 20
14.85050455729167
 30
0.0
 10
62.54542371961805
 20
14.83005099826389
 30
0.0
 10
62.55565049913194
 20
14.80959743923611
 30
0.0
 10
62.56504991319444
 20
14.79937065972222
 30
0.0
 10
62.57366265190972
 20
14.79937065972222
 30
0.0
 10
62.57366265190972
 20
14.79937065972222
 30
0.0
 10
62.57366265190972
 20
14.72823079427083
 30
0.0
 10
62.57366265190972
 20
14.72823079427083
 30
0.0
 10
62.57366265190972
 20
14.72823079427083
 30
0.0
 10
62.33132595486111
 20
14.72823079427083
 30
0.0
 10
62.33132595486111
 20
14.72823079427083
 30
0.0
 10
62.304931640625
 20
14.80560980902778
 30
0.0
 10
62.28982204861111
 20
14.89793565538194
 30
0.0
 10
62.28597005208333
 20
15.0052490234375
 30
0.0
 10
62.28834364149305
 20
15.03192816840278
 30
0.0
 10
62.28952365451389
 20
15.06883409288194
 30
0.0
 10
62.28952365451389
 20
15.115966796875
 30
0.0
 10
62.28952365451389
 20
15.15450032552083
 30
0.0
 10
62.28611924913194
 20
15.18340386284722
 30
0.0
 10
62.279296875
 20
15.20266384548611
 30
0.0
 10
62.27247450086805
 20
15.22193739149306
 30
0.0
 10
62.25773111979166
 20
15.23602973090278
 30
0.0
 10
62.23505316840277
 20
15.24491373697917
 30
0.0
 10
62.21237521701389
 20
15.25379774305556
 30
0.0
 10
62.17702907986111
 20
15.25824652777778
 30
0.0
 10
62.12900119357639
 20
15.25824652777778
 30
0.0
 10
62.12900119357639
 20
15.25824652777778
 30
0.0
 10
61.90134006076389
 20
15.25824652777778
 30
0.0
 10
61.90134006076389
 20
15.25824652777778
 30
0.0
 10
61.90134006076389
 20
15.25824652777778
 30
0.0
 10
61.90134006076389
 20
14.72823079427083
 30
0.0
 10
61.90134006076389
 20
14.72823079427083
 30
0.0
 10
61.90134006076389
 20
14.72823079427083
 30
0.0
 10
61.67012532552083
 20
14.72823079427083
 30
0.0
 10
61.67012532552083
 20
14.72823079427083
 30
0.0
  0
SPLINE
  5
D8
330
1D6
100
AcDbEntity
  8
Layer 1
370
     0
100
AcDbSpline
210
0.0
220
0.0
230
1.0
 70
    11
 71
     3
 72
    26
 73
    22
 74
     0
 42
0.000000001
 43
0.001
 40
0.0
 40
0.0
 40
0.0
 40
0.0
 40
1.0
 40
1.0
 40
1.0
 40
2.0
 40
2.0
 40
2.0
 40
3.0
 40
3.0
 40
3.0
 40
4.0
 40
4.0
 40
4.0
 40
5.0
 40
5.0
 40
5.0
 40
6.0
 40
6.0
 40
6.0
 40
7.0
 40
7.0
 40
7.0
 40
7.0
 10
61.90134006076389
 20
15.504150390625
 30
0.0
 10
61.90134006076389
 20
15.504150390625
 30
0.0
 10
62.19658745659722
 20
15.504150390625
 30
0.0
 10
62.19658745659722
 20
15.504150390625
 30
0.0
 10
62.24312337239583
 20
15.504150390625
 30
0.0
 10
62.2796630859375
 20
15.52156575520833
 30
0.0
 10
62.30619303385416
 20
15.556396484375
 30
0.0
 10
62.33272298177083
 20
15.59122721354167
 30
0.0
 10
62.34600151909722
 20
15.63087293836806
 30
0.0
 10
62.34600151909722
 20
15.67533365885417
 30
0.0
 10
62.34600151909722
 20
15.71831597222222
 30
0.0
 10
62.33257378472222
 20
15.75543891059028
 30
0.0
 10
62.30575900607639
 20
15.78672960069444
 30
0.0
 10
62.27891710069444
 20
15.8179931640625
 30
0.0
 10
62.24134657118055
 20
15.83363172743056
 30
0.0
 10
62.19303385416666
 20
15.83363172743056
 30
0.0
 10
62.19303385416666
 20
15.83363172743056
 30
0.0
 10
61.90134006076389
 20
15.83363172743056
 30
0.0
 10
61.90134006076389
 20
15.83363172743056
 30
0.0
 10
61.90134006076389
 20
15.83363172743056
 30
0.0
 10
61.90134006076389
 20
15.504150390625
 30
0.0
 10
61.90134006076389
 20
15.504150390625
 30
0.0
  0
SPLINE
  5
D9
330
1D6
100
AcDbEntity
  8
Layer 1
370
     0
100
AcDbSpline
210
0.0
220
0.0
230
1.0
 70
    11
 71
     3
 72
    47
 73
    43
 74
     0
 42
0.000000001
 43
0.001
 40
0.0
 40
0.0
 40
0.0
 40
0.0
 40
1.0
 40
1.0
 40
1.0
 40
2.0
 40
2.0
 40
2.0
 40
3.0
 40
3.0
 40
3.0
 40
4.0
 40
4.0
 40
4.0
 40
5.0
 40
5.0
 40
5.0
 40
6.0
 40
6.0
 40
6.0
 40
7.0
 40
7.0
 40
7.0
 40
8.0
 40
8.0
 40
8.0
 40
9.0
 40
9.0
 40
9.0
 40
10.0
 40
10.0
 40
10.0
 40
11.0
 40
11.0
 40
11.0
 40
12.0
 40
12.0
 40
12.0
 40
13.0
 40
13.0
 40
13.0
 40
14.0
 40
14.0
 40
14.0
 40
14.0
 10
62.69015842013889
 20
15.40410698784722
 30
0.0
 10
62.69608561197916
 20
15.509033203125
 30
0.0
 10
62.71601019965277
 20
15.61314561631944
 30
0.0
 10
62.74995930989583
 20
15.71647135416667
 30
0.0
 10
62.78389485677083
 20
15.81976996527778
 30
0.0
 10
62.84095594618055
 20
15.907958984375
 30
0.0
 10
62.921142578125
 20
15.98103841145833
 30
0.0
 10
63.00132921006944
 20
16.05409071180555
 30
0.0
 10
63.10708279079861
 20
16.09063042534722
 30
0.0
 10
63.2384033203125
 20
16.09063042534722
 30
0.0
 10
63.32792154947916
 20
16.09063042534722
 30
0.0
 10
63.41225857204861
 20
16.06499565972222
 30
0.0
 10
63.49141438802083
 20
16.01371256510416
 30
0.0
 10
63.570556640625
 20
15.96242947048611
 30
0.0
 10
63.63532172309027
 20
15.88298882378472
 30
0.0
 10
63.68572319878472
 20
15.775390625
 30
0.0
 10
63.73611111111111
 20
15.66777886284722
 30
0.0
 10
63.76368543836805
 20
15.53423394097222
 30
0.0
 10
63.7684326171875
 20
15.374755859375
 30
0.0
 10
63.7684326171875
 20
15.28049045138889
 30
0.0
 10
63.75849066840277
 20
15.19266764322917
 30
0.0
 10
63.73863389756944
 20
15.11130099826389
 30
0.0
 10
63.71879069010416
 20
15.02992078993056
 30
0.0
 10
63.68756781684027
 20
14.95707194010417
 30
0.0
 10
63.64503309461805
 20
14.89275444878472
 30
0.0
 10
63.60249837239583
 20
14.82842339409722
 30
0.0
 10
63.54736328125
 20
14.7779541015625
 30
0.0
 10
63.47962782118055
 20
14.74134657118056
 30
0.0
 10
63.41189236111111
 20
14.70473904079861
 30
0.0
 10
63.33148871527777
 20
14.68642849392361
 30
0.0
 10
63.2384033203125
 20
14.68642849392361
 30
0.0
 10
63.16814507378472
 20
14.68642849392361
 30
0.0
 10
63.10026041666666
 20
14.70015462239583
 30
0.0
 10
63.03476291232639
 20
14.72756618923611
 30
0.0
 10
62.96923828125
 20
14.75497775607639
 30
0.0
 10
62.91048177083333
 20
14.79787868923611
 30
0.0
 10
62.85845269097222
 20
14.85628255208333
 30
0.0
 10
62.80642361111111
 20
14.91468641493056
 30
0.0
 10
62.76536729600694
 20
14.98969184027778
 30
0.0
 10
62.73528374565972
 20
15.08128526475694
 30
0.0
 10
62.7052001953125
 20
15.17287868923611
 30
0.0
 10
62.69015842013889
 20
15.28049045138889
 30
0.0
 10
62.69015842013889
 20
15.40410698784722
 30
0.0
  0
SPLINE
  5
DA
330
1D6
100
AcDbEntity
  8
Layer 1
370
     0
100
AcDbSpline
210
0.0
220
0.0
230
1.0
 70
    11
 71
     3
 72
    47
 73
    43
 74
     0
 42
0.000000001
 43
0.001
 40
0.0
 40
0.0
 40
0.0
 40
0.0
 40
1.0
 40
1.0
 40
1.0
 40
2.0
 40
2.0
 40
2.0
 40
3.0
 40
3.0
 40
3.0
 40
4.0
 40
4.0
 40
4.0
 40
5.0
 40
5.0
 40
5.0
 40
6.0
 40
6.0
 40
6.0
 40
7.0
 40
7.0
 40
7.0
 40
8.0
 40
8.0
 40
8.0
 40
9.0
 40
9.0
 40
9.0
 40
10.0
 40
10.0
 40
10.0
 40
11.0
 40
11.0
 40
11.0
 40
12.0
 40
12.0
 40
12.0
 40
13.0
 40
13.0
 40
13.0
 40
14.0
 40
14.0
 40
14.0
 40
14.0
 10
63.207275390625
 20
15.83363172743056
 30
0.0
 10
63.15036349826389
 20
15.83185492621528
 30
0.0
 10
63.10049099392361
 20
15.80872938368056
 30
0.0
 10
63.05765787760416
 20
15.76426866319444
 30
0.0
 10
63.01481119791666
 20
15.71980794270833
 30
0.0
 10
62.98177083333333
 20
15.66183810763889
 30
0.0
 10
62.95849609375
 20
15.59041341145833
 30
0.0
 10
62.93522135416666
 20
15.51896158854167
 30
0.0
 10
62.9228515625
 20
15.44411892361111
 30
0.0
 10
62.92137315538194
 20
15.36585828993056
 30
0.0
 10
62.9228515625
 20
15.28908962673611
 30
0.0
 10
62.935302734375
 20
15.21756998697917
 30
0.0
 10
62.95872667100694
 20
15.15131293402778
 30
0.0
 10
62.98213704427083
 20
15.08506944444444
 30
0.0
 10
63.017333984375
 20
15.03171115451389
 30
0.0
 10
63.0643310546875
 20
14.99123806423611
 30
0.0
 10
63.11130099826389
 20
14.95077853732639
 30
0.0
 10
63.16933865017361
 20
14.93055555555556
 30
0.0
 10
63.2384033203125
 20
14.93055555555556
 30
0.0
 10
63.28910319010416
 20
14.93055555555556
 30
0.0
 10
63.33333333333333
 20
14.94203016493056
 30
0.0
 10
63.37113444010416
 20
14.96500651041667
 30
0.0
 10
63.408935546875
 20
14.98798285590278
 30
0.0
 10
63.44004991319444
 20
15.01931423611111
 30
0.0
 10
63.46450466579861
 20
15.05905490451389
 30
0.0
 10
63.48897298177083
 20
15.09876844618056
 30
0.0
 10
63.5072021484375
 20
15.14420572916667
 30
0.0
 10
63.51920572916666
 20
15.19533962673611
 30
0.0
 10
63.53120930989583
 20
15.24647352430556
 30
0.0
 10
63.53721788194444
 20
15.29961480034722
 30
0.0
 10
63.53721788194444
 20
15.354736328125
 30
0.0
 10
63.53721788194444
 20
15.41639539930556
 30
0.0
 10
63.53024631076389
 20
15.47539605034722
 30
0.0
 10
63.51631673177083
 20
15.53171115451389
 30
0.0
 10
63.50237358940972
 20
15.58802625868056
 30
0.0
 10
63.48147243923611
 20
15.63902452256944
 30
0.0
 10
63.45361328125
 20
15.68467881944444
 30
0.0
 10
63.42575412326389
 20
15.73031955295139
 30
0.0
 10
63.39084201388889
 20
15.76656087239583
 30
0.0
 10
63.34890407986111
 20
15.79338921440972
 30
0.0
 10
63.30695258246527
 20
15.82021755642361
 30
0.0
 10
63.25975206163194
 20
15.83363172743056
 30
0.0
 10
63.207275390625
 20
15.83363172743056
 30
0.0
  0
LWPOLYLINE
  5
DB
330
1D6
100
AcDbEntity
  8
Layer 1
370
     0
100
AcDbPolyline
 90
        5
 70
     0
 43
0.0
 10
63.89781358506944
 20
14.72823079427083
 10
63.89781358506944
 20
16.06129286024305
 10
64.1290283203125
 20
16.06129286024305
 10
64.1290283203125
 20
14.72823079427083
 10
63.89781358506944
 20
14.72823079427083
  0
SPLINE
  5
E2
330
1D6
100
AcDbEntity
  8
Layer 1
370
     0
100
AcDbSpline
210
0.0
220
0.0
230
1.0
 70
    11
 71
     3
 72
    38
 73
    34
 74
     0
 42
0.000000001
 43
0.001
 40
0.0
 40
0.0
 40
0.0
 40
0.0
 40
1.0
 40
1.0
 40
1.0
 40
2.0
 40
2.0
 40
2.0
 40
3.0
 40
3.0
 40
3.0
 40
4.0
 40
4.0
 40
4.0
 40
5.0
 40
5.0
 40
5.0
 40
6.0
 40
6.0
 40
6.0
 40
7.0
 40
7.0
 40
7.0
 40
8.0
 40
8.0
 40
8.0
 40
9.0
 40
9.0
 40
9.0
 40
10.0
 40
10.0
 40
10.0
 40
11.0
 40
11.0
 40
11.0
 40
11.0
 10
64.3455810546875
 20
14.72823079427083
 30
0.0
 10
64.3455810546875
 20
14.72823079427083
 30
0.0
 10
64.3455810546875
 20
16.06129286024305
 30
0.0
 10
64.3455810546875
 20
16.06129286024305
 30
0.0
 10
64.3455810546875
 20
16.06129286024305
 30
0.0
 10
64.80845811631944
 20
16.06129286024305
 30
0.0
 10
64.80845811631944
 20
16.06129286024305
 30
0.0
 10
64.88167317708333
 20
16.06129286024305
 30
0.0
 10
64.94681803385416
 20
16.04298231336805
 30
0.0
 10
65.00389268663194
 20
16.00637478298611
 30
0.0
 10
65.06095377604166
 20
15.96975368923611
 30
0.0
 10
65.10838487413194
 20
15.92003038194444
 30
0.0
 10
65.14617241753471
 20
15.85720486111111
 30
0.0
 10
65.18397352430556
 20
15.79435221354167
 30
0.0
 10
65.21234809027777
 20
15.72291395399306
 30
0.0
 10
65.2313232421875
 20
15.64287651909722
 30
0.0
 10
65.25029839409721
 20
15.56283908420139
 30
0.0
 10
65.25977918836806
 20
15.47953287760417
 30
0.0
 10
65.25977918836806
 20
15.39298502604167
 30
0.0
 10
65.25977918836806
 20
15.30790201822917
 30
0.0
 10
65.25021701388889
 20
15.22550455729167
 30
0.0
 10
65.23110622829861
 20
15.145751953125
 30
0.0
 10
65.21198187934027
 20
15.06601291232639
 30
0.0
 10
65.18352593315971
 20
14.994873046875
 30
0.0
 10
65.14572482638889
 20
14.93231879340278
 30
0.0
 10
65.10793728298611
 20
14.86977810329861
 30
0.0
 10
65.06035698784721
 20
14.82012261284722
 30
0.0
 10
65.00299750434027
 20
14.78336588541667
 30
0.0
 10
64.94563802083333
 20
14.74660915798611
 30
0.0
 10
64.88079155815971
 20
14.72823079427083
 30
0.0
 10
64.80845811631944
 20
14.72823079427083
 30
0.0
 10
64.80845811631944
 20
14.72823079427083
 30
0.0
 10
64.3455810546875
 20
14.72823079427083
 30
0.0
 10
64.3455810546875
 20
14.72823079427083
 30
0.0
  0
SPLINE
  5
E3
330
1D6
100
AcDbEntity
  8
Layer 1
370
     0
100
AcDbSpline
210
0.0
220
0.0
230
1.0
 70
    11
 71
     3
 72
    32
 73
    28
 74
     0
 42
0.000000001
 43
0.001
 40
0.0
 40
0.0
 40
0.0
 40
0.0
 40
1.0
 40
1.0
 40
1.0
 40
2.0
 40
2.0
 40
2.0
 40
3.0
 40
3.0
 40
3.0
 40
4.0
 40
4.0
 40
4.0
 40
5.0
 40
5.0
 40
5.0
 40
6.0
 40
6.0
 40
6.0
 40
7.0
 40
7.0
 40
7.0
 40
8.0
 40
8.0
 40
8.0
 40
9.0
 40
9.0
 40
9.0
 40
9.0
 10
64.5732421875
 20
14.97412109375
 30
0.0
 10
64.5732421875
 20
14.97412109375
 30
0.0
 10
64.77714029947916
 20
14.97412109375
 30
0.0
 10
64.77714029947916
 20
14.97412109375
 30
0.0
 10
64.82807074652777
 20
14.97412109375
 30
0.0
 10
64.871826171875
 20
14.99419487847222
 30
0.0
 10
64.90839301215277
 20
15.03436957465278
 30
0.0
 10
64.94497341579861
 20
15.07454427083333
 30
0.0
 10
64.97257486979166
 20
15.12708875868056
 30
0.0
 10
64.99123806423611
 20
15.19200303819444
 30
0.0
 10
65.00990125868056
 20
15.25691731770833
 30
0.0
 10
65.01923285590277
 20
15.32628038194444
 30
0.0
 10
65.01923285590277
 20
15.40009223090278
 30
0.0
 10
65.01923285590277
 20
15.47657606336806
 30
0.0
 10
65.00996907552083
 20
15.54771592881944
 30
0.0
 10
64.99146864149306
 20
15.613525390625
 30
0.0
 10
64.97295464409721
 20
15.67933485243056
 30
0.0
 10
64.94533962673611
 20
15.73247612847222
 30
0.0
 10
64.90862358940971
 20
15.77293565538194
 30
0.0
 10
64.87189398871527
 20
15.81339518229167
 30
0.0
 10
64.82807074652777
 20
15.83363172743056
 30
0.0
 10
64.77714029947916
 20
15.83363172743056
 30
0.0
 10
64.77714029947916
 20
15.83363172743056
 30
0.0
 10
64.5732421875
 20
15.83363172743056
 30
0.0
 10
64.5732421875
 20
15.83363172743056
 30
0.0
 10
64.5732421875
 20
15.83363172743056
 30
0.0
 10
64.5732421875
 20
14.97412109375
 30
0.0
 10
64.5732421875
 20
14.97412109375
 30
0.0
  0
ENDBLK
  5
1D8
330
1D6
100
AcDbEntity
  8
0
100
AcDbBlockEnd
  0
BLOCK
  5
1DA
330
1D9
100
AcDbEntity
  8
0
100
AcDbBlockBegin
  2
block 8
 70
     0
 10
0.0
 20
0.0
 30
0.0
  3
block 8
  1

  0
LWPOLYLINE
  5
EA
330
1D9
100
AcDbEntity
  8
Layer 1
370
     0
100
AcDbPolyline
 90
        9
 70
     0
 43
0.0
 10
65.39185926649306
 20
15.99765353732639
 10
65.34635416666666
 20
15.99765353732639
 10
65.34635416666666
 20
16.0296630859375
 10
65.47588433159721
 20
16.0296630859375
 10
65.47588433159721
 20
15.99765353732639
 10
65.42987738715277
 20
15.99765353732639
 10
65.42987738715277
 20
15.86111111111111
 10
65.39185926649306
 20
15.86111111111111
 10
65.39185926649306
 20
15.99765353732639
  0
SPLINE
  5
F3
330
1D9
100
AcDbEntity
  8
Layer 1
370
     0
100
AcDbSpline
210
0.0
220
0.0
230
1.0
 70
    11
 71
     3
 72
    71
 73
    67
 74
     0
 42
0.000000001
 43
0.001
 40
0.0
 40
0.0
 40
0.0
 40
0.0
 40
1.0
 40
1.0
 40
1.0
 40
2.0
 40
2.0
 40
2.0
 40
3.0
 40
3.0
 40
3.0
 40
4.0
 40
4.0
 40
4.0
 40
5.0
 40
5.0
 40
5.0
 40
6.0
 40
6.0
 40
6.0
 40
7.0
 40
7.0
 40
7.0
 40
8.0
 40
8.0
 40
8.0
 40
9.0
 40
9.0
 40
9.0
 40
10.0
 40
10.0
 40
10.0
 40
11.0
 40
11.0
 40
11.0
 40
12.0
 40
12.0
 40
12.0
 40
13.0
 40
13.0
 40
13.0
 40
14.0
 40
14.0
 40
14.0
 40
15.0
 40
15.0
 40
15.0
 40
16.0
 40
16.0
 40
16.0
 40
17.0
 40
17.0
 40
17.0
 40
18.0
 40
18.0
 40
18.0
 40
19.0
 40
19.0
 40
19.0
 40
20.0
 40
20.0
 40
20.0
 40
21.0
 40
21.0
 40
21.0
 40
22.0
 40
22.0
 40
22.0
 40
22.0
 10
65.63764105902777
 20
15.92563205295139
 30
0.0
 10
65.63689507378471
 20
15.94588216145833
 30
0.0
 10
65.63614908854166
 20
15.97039116753472
 30
0.0
 10
65.63614908854166
 20
15.99490017361111
 30
0.0
 10
65.63614908854166
 20
15.99490017361111
 30
0.0
 10
65.63564724392361
 20
15.99490017361111
 30
0.0
 10
65.63564724392361
 20
15.99490017361111
 30
0.0
 10
65.63014051649306
 20
15.973388671875
 30
0.0
 10
65.62314181857639
 20
15.94938151041667
 30
0.0
 10
65.61663140190971
 20
15.92963324652778
 30
0.0
 10
65.61663140190971
 20
15.92963324652778
 30
0.0
 10
65.59613715277777
 20
15.86386447482639
 30
0.0
 10
65.59613715277777
 20
15.86386447482639
 30
0.0
 10
65.59613715277777
 20
15.86386447482639
 30
0.0
 10
65.56637912326389
 20
15.86386447482639
 30
0.0
 10
65.56637912326389
 20
15.86386447482639
 30
0.0
 10
65.56637912326389
 20
15.86386447482639
 30
0.0
 10
65.54836697048611
 20
15.92887369791667
 30
0.0
 10
65.54836697048611
 20
15.92887369791667
 30
0.0
 10
65.54286024305556
 20
15.94889322916667
 30
0.0
 10
65.53736707899306
 20
15.972900390625
 30
0.0
 10
65.53310818142361
 20
15.99490017361111
 30
0.0
 10
65.53310818142361
 20
15.99490017361111
 30
0.0
 10
65.53261990017361
 20
15.99490017361111
 30
0.0
 10
65.53261990017361
 20
15.99490017361111
 30
0.0
 10
65.5318603515625
 20
15.97214084201389
 30
0.0
 10
65.53085666232639
 20
15.94613986545139
 30
0.0
 10
65.52986653645833
 20
15.92513020833333
 30
0.0
 10
65.52986653645833
 20
15.92513020833333
 30
0.0
 10
65.526611328125
 20
15.86111111111111
 30
0.0
 10
65.526611328125
 20
15.86111111111111
 30
0.0
 10
65.526611328125
 20
15.86111111111111
 30
0.0
 10
65.49134657118056
 20
15.86111111111111
 30
0.0
 10
65.49134657118056
 20
15.86111111111111
 30
0.0
 10
65.49134657118056
 20
15.86111111111111
 30
0.0
 10
65.50210232204861
 20
16.0296630859375
 30
0.0
 10
65.50210232204861
 20
16.0296630859375
 30
0.0
 10
65.50210232204861
 20
16.0296630859375
 30
0.0
 10
65.55287000868056
 20
16.0296630859375
 30
0.0
 10
65.55287000868056
 20
16.0296630859375
 30
0.0
 10
65.55287000868056
 20
16.0296630859375
 30
0.0
 10
65.56937662760416
 20
15.973388671875
 30
0.0
 10
65.56937662760416
 20
15.973388671875
 30
0.0
 10
65.57486979166666
 20
15.95388454861111
 30
0.0
 10
65.57988823784721
 20
15.93288845486111
 30
0.0
 10
65.58363172743056
 20
15.91312662760417
 30
0.0
 10
65.58363172743056
 20
15.91312662760417
 30
0.0
 10
65.58462185329861
 20
15.91312662760417
 30
0.0
 10
65.58462185329861
 20
15.91312662760417
 30
0.0
 10
65.58912489149306
 20
15.93263075086806
 30
0.0
 10
65.59487575954861
 20
15.95488823784722
 30
0.0
 10
65.60062662760416
 20
15.97364637586806
 30
0.0
 10
65.60062662760416
 20
15.97364637586806
 30
0.0
 10
65.61839463975694
 20
16.0296630859375
 30
0.0
 10
65.61839463975694
 20
16.0296630859375
 30
0.0
 10
65.61839463975694
 20
16.0296630859375
 30
0.0
 10
65.66840277777777
 20
16.0296630859375
 30
0.0
 10
65.66840277777777
 20
16.0296630859375
 30
0.0
 10
65.66840277777777
 20
16.0296630859375
 30
0.0
 10
65.67740885416666
 20
15.86111111111111
 30
0.0
 10
65.67740885416666
 20
15.86111111111111
 30
0.0
 10
65.67740885416666
 20
15.86111111111111
 30
0.0
 10
65.64039442274306
 20
15.86111111111111
 30
0.0
 10
65.64039442274306
 20
15.86111111111111
 30
0.0
 10
65.64039442274306
 20
15.86111111111111
 30
0.0
 10
65.63764105902777
 20
15.92563205295139
 30
0.0
 10
65.63764105902777
 20
15.92563205295139
 30
0.0
  0
ENDBLK
  5
1DB
330
1D9
100
AcDbEntity
  8
0
100
AcDbBlockEnd
  0
ENDSEC
  0
SECTION
  2
ENTITIES
  0
INSERT
  5
F4
330
113
100
AcDbEntity
  8
Layer 1
100
AcDbBlockReference
  2
block 2
 10
0.0
 20
0.0
 30
0.0
  0
INSERT
  5
46
330
113
100
AcDbEntity
  8
Layer 1
100
AcDbBlockReference
  2
block 3
 10
0.0
 20
0.0
 30
0.0
  0
HATCH
  5
7C
330
113
100
AcDbEntity
  8
Layer 1
 62
     5
440
 33554687
100
AcDbHatch
 10
0.0
 20
0.0
 30
0.0
210
0.0
220
0.0
230
1.0
  2
SOLID
 70
     1
 71
     0
 91
        9
 92
        0
 93
        1
 72
     4
 94
        3
 73
     0
 74
     0
 95
       29
 96
       25
 40
0.0
 40
0.0
 40
0.0
 40
0.0
 40
1.0
 40
1.0
 40
1.0
 40
2.0
 40
2.0
 40
2.0
 40
3.0
 40
3.0
 40
3.0
 40
4.0
 40
4.0
 40
4.0
 40
5.0
 40
5.0
 40
5.0
 40
6.0
 40
6.0
 40
6.0
 40
7.0
 40
7.0
 40
7.0
 40
8.0
 40
8.0
 40
8.0
 40
8.0
 10
61.33402506510416
 20
18.18374972873264
 10
61.33402506510416
 20
18.18374972873264
 10
58.64333089192708
 20
18.18374972873264
 10
58.64333089192708
 20
18.18374972873264
 10
58.59735785590277
 20
18.18374972873264
 10
58.55999755859375
 20
18.14971923828125
 10
58.55999755859375
 20
18.10763888888889
 10
58.55999755859375
 20
18.10763888888889
 10
58.55999755859375
 20
17.62764485677083
 10
58.55999755859375
 20
17.62764485677083
 10
58.55999755859375
 20
17.58555772569444
 10
58.59735785590277
 20
17.5513916015625
 10
58.64333089192708
 20
17.5513916015625
 10
58.64333089192708
 20
17.5513916015625
 10
61.33402506510416
 20
17.5513916015625
 10
61.33402506510416
 20
17.5513916015625
 10
61.3800048828125
 20
17.5513916015625
 10
61.4173583984375
 20
17.58555772569444
 10
61.4173583984375
 20
17.62764485677083
 10
61.4173583984375
 20
17.62764485677083
 10
61.4173583984375
 20
18.10763888888889
 10
61.4173583984375
 20
18.10763888888889
 10
61.4173583984375
 20
18.14971923828125
 10
61.3800048828125
 20
18.18374972873264
 10
61.33402506510416
 20
18.18374972873264
 97
        0
 97
        0
 92
        0
 93
        1
 72
     4
 94
        3
 73
     0
 74
     0
 95
       95
 96
       91
 40
0.0
 40
0.0
 40
0.0
 40
0.0
 40
1.0
 40
1.0
 40
1.0
 40
2.0
 40
2.0
 40
2.0
 40
3.0
 40
3.0
 40
3.0
 40
4.0
 40
4.0
 40
4.0
 40
5.0
 40
5.0
 40
5.0
 40
6.0
 40
6.0
 40
6.0
 40
7.0
 40
7.0
 40
7.0
 40
8.0
 40
8.0
 40
8.0
 40
9.0
 40
9.0
 40
9.0
 40
10.0
 40
10.0
 40
10.0
 40
11.0
 40
11.0
 40
11.0
 40
12.0
 40
12.0
 40
12.0
 40
13.0
 40
13.0
 40
13.0
 40
14.0
 40
14.0
 40
14.0
 40
15.0
 40
15.0
 40
15.0
 40
16.0
 40
16.0
 40
16.0
 40
17.0
 40
17.0
 40
17.0
 40
18.0
 40
18.0
 40
18.0
 40
19.0
 40
19.0
 40
19.0
 40
20.0
 40
20.0
 40
20.0
 40
21.0
 40
21.0
 40
21.0
 40
22.0
 40
22.0
 40
22.0
 40
23.0
 40
23.0
 40
23.0
 40
24.0
 40
24.0
 40
24.0
 40
25.0
 40
25.0
 40
25.0
 40
26.0
 40
26.0
 40
26.0
 40
27.0
 40
27.0
 40
27.0
 40
28.0
 40
28.0
 40
28.0
 40
29.0
 40
29.0
 40
29.0
 40
30.0
 40
30.0
 40
30.0
 40
30.0
 10
59.08597140842014
 20
17.73847113715278
 10
59.07972547743055
 20
17.72153049045139
 10
59.07041422526041
 20
17.70555284288194
 10
59.0580579969618
 20
17.69070095486111
 10
59.04569498697916
 20
17.67583550347222
 10
59.03000217013889
 20
17.66388617621528
 10
59.0106947157118
 20
17.65471733940972
 10
58.9915296766493
 20
17.64556206597222
 10
58.96902804904514
 20
17.64111328125
 10
58.94361029730902
 20
17.64111328125
 10
58.91514078776041
 20
17.64111328125
 10
58.89083523220486
 20
17.64763726128472
 10
58.8709716796875
 20
17.66083441840278
 10
58.85097249348958
 20
17.67416720920139
 10
58.83500162760416
 20
17.6915283203125
 10
58.82333034939236
 20
17.71333821614583
 10
58.81166585286458
 20
17.73513454861111
 10
58.80319552951389
 20
17.75832790798611
 10
58.79833306206597
 20
17.78318956163194
 10
58.7933349609375
 20
17.80791558159722
 10
58.79083251953125
 20
17.8326416015625
 10
58.79083251953125
 20
17.85708279079861
 10
58.79083251953125
 20
17.88263617621528
 10
58.79347059461805
 20
17.90791829427083
 10
58.79888916015625
 20
17.93291558159722
 10
58.80416531032986
 20
17.95806206597222
 10
58.81291368272569
 20
17.98110622829861
 10
58.82499864366319
 20
18.00236002604166
 10
58.83708360460069
 20
18.02347819010416
 10
58.85347493489583
 20
18.04041883680555
 10
58.87403021918402
 20
18.05319552951389
 10
58.89458550347222
 20
18.06597222222222
 10
58.91958279079861
 20
18.07250298394097
 10
58.94875081380208
 20
18.07250298394097
 10
58.95472547743055
 20
18.07250298394097
 10
58.9593031141493
 20
18.07222493489583
 10
58.96236165364583
 20
18.07180447048611
 10
58.97916666666666
 20
18.07069227430555
 10
58.99541558159722
 20
18.06610785590278
 10
59.0111083984375
 20
18.05791558159722
 10
59.0268079969618
 20
18.04985894097222
 10
59.04083251953125
 20
18.03888617621528
 10
59.0530531141493
 20
18.02513292100694
 10
59.06528049045139
 20
18.01152886284722
 10
59.07499864366319
 20
17.99541558159722
 10
59.08208550347222
 20
17.97707790798611
 10
59.0893079969618
 20
17.95875379774305
 10
59.09278021918402
 20
17.93916829427083
 10
59.09278021918402
 20
17.91847059461805
 10
59.09278021918402
 20
17.91847059461805
 10
59.02333577473958
 20
17.91847059461805
 10
59.02333577473958
 20
17.91847059461805
 10
59.02041965060764
 20
17.94166395399305
 10
59.01291910807291
 20
17.96124945746528
 10
59.00083414713541
 20
17.97694227430555
 10
58.98874918619791
 20
17.99278428819444
 10
58.97111002604166
 20
18.00069173177083
 10
58.94805230034722
 20
18.00069173177083
 10
58.92888726128472
 20
18.00027126736111
 10
58.91278076171875
 20
17.99332682291666
 10
58.89944118923611
 20
17.97972276475694
 10
58.8861083984375
 20
17.96625434027778
 10
58.87624782986111
 20
17.94847276475694
 10
58.86972384982639
 20
17.9263916015625
 10
58.86305745442708
 20
17.90444607204861
 10
58.85986328125
 20
17.88083224826389
 10
58.85986328125
 20
17.8558349609375
 10
58.86027696397569
 20
17.83110894097222
 10
58.86402723524305
 20
17.80791558159722
 10
58.87083604600694
 20
17.7862548828125
 10
58.8776380750868
 20
17.76458062065972
 10
58.88749864366319
 20
17.74708387586805
 10
58.90055338541666
 20
17.73361545138889
 10
58.91360812717014
 20
17.72013346354166
 10
58.92916531032986
 20
17.71347384982639
 10
58.94694688585069
 20
17.71347384982639
 10
58.96083577473958
 20
17.71347384982639
 10
58.97333441840277
 20
17.71666124131944
 10
58.98430718315972
 20
17.72333441840278
 10
58.99527994791666
 20
17.72999403211805
 10
59.00416395399305
 20
17.73902723524305
 10
59.01097276475694
 20
17.75055609809028
 10
59.0177747938368
 20
17.7620849609375
 10
59.02222357855902
 20
17.77486165364583
 10
59.02444118923611
 20
17.78917100694444
 10
59.02444118923611
 20
17.78917100694444
 10
59.09694417317708
 20
17.78917100694444
 10
59.09694417317708
 20
17.78917100694444
 10
59.09583197699652
 20
17.77250162760416
 10
59.09222412109375
 20
17.75556098090278
 10
59.08597140842014
 20
17.73847113715278
 97
        0
 97
        0
 92
        0
 93
       12
 72
     1
 10
59.40680609809027
 20
17.65028211805555
 11
59.14638943142361
 21
17.65028211805555
 72
     1
 10
59.14638943142361
 20
17.65028211805555
 11
59.14638943142361
 21
18.06722005208333
 72
     1
 10
59.14638943142361
 20
18.06722005208333
 11
59.39763726128472
 21
18.06722005208333
 72
     1
 10
59.39763726128472
 20
18.06722005208333
 11
59.39763726128472
 21
17.99207899305555
 72
     1
 10
59.39763726128472
 20
17.99207899305555
 11
59.2227783203125
 21
17.99207899305555
 72
     1
 10
59.2227783203125
 20
17.99207899305555
 11
59.2227783203125
 21
17.90611436631944
 72
     1
 10
59.2227783203125
 20
17.90611436631944
 11
59.38402642144097
 21
17.90611436631944
 72
     1
 10
59.38402642144097
 20
17.90611436631944
 11
59.38402642144097
 21
17.82916937934028
 72
     1
 10
59.38402642144097
 20
17.82916937934028
 11
59.2227783203125
 21
17.82916937934028
 72
     1
 10
59.2227783203125
 20
17.82916937934028
 11
59.2227783203125
 21
17.72722710503472
 72
     1
 10
59.2227783203125
 20
17.72722710503472
 11
59.40680609809027
 21
17.72722710503472
 72
     1
 10
59.40680609809027
 20
17.72722710503472
 11
59.40680609809027
 21
17.65028211805555
 97
        0
 92
        0
 93
       10
 72
     1
 10
59.72916666666666
 20
17.65028211805555
 11
59.65805392795139
 21
17.65028211805555
 72
     1
 10
59.65805392795139
 20
17.65028211805555
 11
59.51902940538194
 21
17.93736436631944
 72
     1
 10
59.51902940538194
 20
17.93736436631944
 11
59.51902940538194
 21
17.65028211805555
 72
     1
 10
59.51902940538194
 20
17.65028211805555
 11
59.44666883680555
 21
17.65028211805555
 72
     1
 10
59.44666883680555
 20
17.65028211805555
 11
59.44666883680555
 21
18.06722005208333
 72
     1
 10
59.44666883680555
 20
18.06722005208333
 11
59.51902940538194
 21
18.06722005208333
 72
     1
 10
59.51902940538194
 20
18.06722005208333
 11
59.65805392795139
 21
17.78472222222222
 72
     1
 10
59.65805392795139
 20
17.78472222222222
 11
59.65805392795139
 21
18.06722005208333
 72
     1
 10
59.65805392795139
 20
18.06722005208333
 11
59.72916666666666
 21
18.06722005208333
 72
     1
 10
59.72916666666666
 20
18.06722005208333
 11
59.72916666666666
 21
17.65028211805555
 97
        0
 92
        0
 93
        8
 72
     1
 10
60.0352783203125
 20
17.99207899305555
 11
59.93611653645833
 21
17.99207899305555
 72
     1
 10
59.93611653645833
 20
17.99207899305555
 11
59.93611653645833
 21
17.65028211805555
 72
     1
 10
59.93611653645833
 20
17.65028211805555
 11
59.86485460069444
 21
17.65028211805555
 72
     1
 10
59.86485460069444
 20
17.65028211805555
 11
59.86485460069444
 21
17.99207899305555
 72
     1
 10
59.86485460069444
 20
17.99207899305555
 11
59.76180013020833
 21
17.99207899305555
 72
     1
 10
59.76180013020833
 20
17.99207899305555
 11
59.76180013020833
 21
18.06722005208333
 72
     1
 10
59.76180013020833
 20
18.06722005208333
 11
60.0352783203125
 21
18.06722005208333
 72
     1
 10
60.0352783203125
 20
18.06722005208333
 11
60.0352783203125
 21
17.99207899305555
 97
        0
 92
        0
 93
        1
 72
     4
 94
        3
 73
     0
 74
     0
 95
       77
 96
       73
 40
0.0
 40
0.0
 40
0.0
 40
0.0
 40
1.0
 40
1.0
 40
1.0
 40
2.0
 40
2.0
 40
2.0
 40
3.0
 40
3.0
 40
3.0
 40
4.0
 40
4.0
 40
4.0
 40
5.0
 40
5.0
 40
5.0
 40
6.0
 40
6.0
 40
6.0
 40
7.0
 40
7.0
 40
7.0
 40
8.0
 40
8.0
 40
8.0
 40
9.0
 40
9.0
 40
9.0
 40
10.0
 40
10.0
 40
10.0
 40
11.0
 40
11.0
 40
11.0
 40
12.0
 40
12.0
 40
12.0
 40
13.0
 40
13.0
 40
13.0
 40
14.0
 40
14.0
 40
14.0
 40
15.0
 40
15.0
 40
15.0
 40
16.0
 40
16.0
 40
16.0
 40
17.0
 40
17.0
 40
17.0
 40
18.0
 40
18.0
 40
18.0
 40
19.0
 40
19.0
 40
19.0
 40
20.0
 40
20.0
 40
20.0
 40
21.0
 40
21.0
 40
21.0
 40
22.0
 40
22.0
 40
22.0
 40
23.0
 40
23.0
 40
23.0
 40
24.0
 40
24.0
 40
24.0
 40
24.0
 10
60.320556640625
 20
17.84292263454861
 10
60.32596842447916
 20
17.83818901909722
 10
60.3306884765625
 20
17.83194986979166
 10
60.334716796875
 20
17.82430013020833
 10
60.33860948350694
 20
17.8165283203125
 10
60.34054904513889
 20
17.80791558159722
 10
60.34054904513889
 20
17.79833984375
 10
60.34054904513889
 20
17.79833984375
 10
60.34457736545139
 20
17.70486111111111
 10
60.34457736545139
 20
17.70486111111111
 10
60.34457736545139
 20
17.69611273871528
 10
60.34624565972222
 20
17.6884765625
 10
60.34944661458333
 20
17.68208821614583
 10
60.35263400607639
 20
17.67569986979166
 10
60.35555013020833
 20
17.67249891493055
 10
60.35819498697916
 20
17.67249891493055
 10
60.35819498697916
 20
17.67249891493055
 10
60.35819498697916
 20
17.65028211805555
 10
60.35819498697916
 20
17.65028211805555
 10
60.35819498697916
 20
17.65028211805555
 10
60.28249782986111
 20
17.65028211805555
 10
60.28249782986111
 20
17.65028211805555
 10
60.274169921875
 20
17.6744384765625
 10
60.26944986979166
 20
17.70332845052083
 10
60.2681884765625
 20
17.7369384765625
 10
60.26902940538194
 20
17.74527994791666
 10
60.26930067274305
 20
17.75680881076389
 10
60.26930067274305
 20
17.77152506510416
 10
60.26930067274305
 20
17.78361002604166
 10
60.26833767361111
 20
17.79264322916666
 10
60.26611328125
 20
17.79874674479166
 10
60.26402452256944
 20
17.80472819010416
 10
60.25944010416666
 20
17.80916341145833
 10
60.25236002604166
 20
17.81194390190972
 10
60.24527994791666
 20
17.81472439236111
 10
60.23417154947916
 20
17.81610785590278
 10
60.21917046440972
 20
17.81610785590278
 10
60.21917046440972
 20
17.81610785590278
 10
60.14792209201389
 20
17.81610785590278
 10
60.14792209201389
 20
17.81610785590278
 10
60.14792209201389
 20
17.81610785590278
 10
60.14792209201389
 20
17.65028211805555
 10
60.14792209201389
 20
17.65028211805555
 10
60.14792209201389
 20
17.65028211805555
 10
60.0755615234375
 20
17.65028211805555
 10
60.0755615234375
 20
17.65028211805555
 10
60.0755615234375
 20
17.65028211805555
 10
60.0755615234375
 20
18.06722005208333
 10
60.0755615234375
 20
18.06722005208333
 10
60.0755615234375
 20
18.06722005208333
 10
60.26930067274305
 20
18.06722005208333
 10
60.26930067274305
 20
18.06722005208333
 10
60.28249782986111
 20
18.06722005208333
 10
60.29471842447916
 20
18.06430392795139
 10
60.30597601996527
 20
18.05860731336805
 10
60.31722005208333
 20
18.05277506510416
 10
60.32680935329861
 20
18.04486762152778
 10
60.334716796875
 20
18.03472222222222
 10
60.34263780381944
 20
18.02472601996528
 10
60.3487548828125
 20
18.0130615234375
 10
60.35291883680555
 20
18.0
 10
60.35721842447916
 20
17.98680284288194
 10
60.35944281684027
 20
17.97291395399305
 10
60.35944281684027
 20
17.95846896701389
 10
60.35944281684027
 20
17.93819173177083
 10
60.35472276475694
 20
17.91875542534722
 10
60.34555392795139
 20
17.89999728732639
 10
60.33638509114583
 20
17.88138834635416
 10
60.32278103298611
 20
17.86541069878472
 10
60.30472819010416
 20
17.85249837239583
 10
60.30985514322916
 20
17.850830078125
 10
60.31514485677083
 20
17.84764268663194
 10
60.320556640625
 20
17.84292263454861
 97
        0
 97
        0
 92
        0
 93
        1
 72
     4
 94
        3
 73
     0
 74
     0
 95
       47
 96
       43
 40
0.0
 40
0.0
 40
0.0
 40
0.0
 40
1.0
 40
1.0
 40
1.0
 40
2.0
 40
2.0
 40
2.0
 40
3.0
 40
3.0
 40
3.0
 40
4.0
 40
4.0
 40
4.0
 40
5.0
 40
5.0
 40
5.0
 40
6.0
 40
6.0
 40
6.0
 40
7.0
 40
7.0
 40
7.0
 40
8.0
 40
8.0
 40
8.0
 40
9.0
 40
9.0
 40
9.0
 40
10.0
 40
10.0
 40
10.0
 40
11.0
 40
11.0
 40
11.0
 40
12.0
 40
12.0
 40
12.0
 40
13.0
 40
13.0
 40
13.0
 40
14.0
 40
14.0
 40
14.0
 40
14.0
 10
60.7227783203125
 20
17.7701416015625
 10
60.71652560763889
 20
17.74458821614583
 10
60.7066650390625
 20
17.7218017578125
 10
60.69346788194444
 20
17.70166015625
 10
60.68013509114583
 20
17.68153211805555
 10
60.66277398003472
 20
17.66583930121528
 10
60.64166937934027
 20
17.65431043836805
 10
60.62041558159722
 20
17.64291720920139
 10
60.59528266059027
 20
17.63722059461805
 10
60.56624348958333
 20
17.63722059461805
 10
60.5443115234375
 20
17.63722059461805
 10
60.52305772569444
 20
17.64153374565972
 10
60.50249565972222
 20
17.64999728732639
 10
60.48208279079861
 20
17.65861002604166
 10
60.46360948350694
 20
17.67207845052083
 10
60.44736056857639
 20
17.69028049045139
 10
60.43111165364583
 20
17.70860460069444
 10
60.41819932725694
 20
17.73208279079861
 10
60.40874565972222
 20
17.76068793402778
 10
60.39944118923611
 20
17.789306640625
 10
60.39472113715277
 20
17.82305230034722
 10
60.39472113715277
 20
17.86166720920139
 10
60.39652506510416
 20
17.89458550347222
 10
60.40277777777777
 20
17.92708333333333
 10
60.41346571180555
 20
17.95944552951389
 10
60.42403157552083
 20
17.99167209201389
 10
60.44179958767361
 20
18.01930067274305
 10
60.46694607204861
 20
18.04222276475694
 10
60.49207899305555
 20
18.06499565972222
 10
60.52513292100694
 20
18.07652452256944
 10
60.56624348958333
 20
18.07652452256944
 10
60.59417046440972
 20
18.07652452256944
 10
60.62055121527777
 20
18.06846788194444
 10
60.64541286892361
 20
18.05235460069444
 10
60.67013888888889
 20
18.03639051649305
 10
60.69041612413194
 20
18.01152886284722
 10
60.70610894097222
 20
17.977783203125
 10
60.72195095486111
 20
17.94417317708333
 10
60.73055013020833
 20
17.90235731336805
 10
60.73208279079861
 20
17.85249837239583
 10
60.73208279079861
 20
17.82305230034722
 10
60.72889539930555
 20
17.79555935329861
 10
60.7227783203125
 20
17.7701416015625
 97
        0
 97
        0
 92
        0
 93
        4
 72
     1
 10
60.84486219618055
 20
17.65028211805555
 11
60.77250162760416
 21
17.65028211805555
 72
     1
 10
60.77250162760416
 20
17.65028211805555
 11
60.77250162760416
 21
18.06722005208333
 72
     1
 10
60.77250162760416
 20
18.06722005208333
 11
60.84486219618055
 21
18.06722005208333
 72
     1
 10
60.84486219618055
 20
18.06722005208333
 11
60.84486219618055
 21
17.65028211805555
 97
        0
 92
        0
 93
        1
 72
     4
 94
        3
 73
     0
 74
     0
 95
       38
 96
       34
 40
0.0
 40
0.0
 40
0.0
 40
0.0
 40
1.0
 40
1.0
 40
1.0
 40
2.0
 40
2.0
 40
2.0
 40
3.0
 40
3.0
 40
3.0
 40
4.0
 40
4.0
 40
4.0
 40
5.0
 40
5.0
 40
5.0
 40
6.0
 40
6.0
 40
6.0
 40
7.0
 40
7.0
 40
7.0
 40
8.0
 40
8.0
 40
8.0
 40
9.0
 40
9.0
 40
9.0
 40
10.0
 40
10.0
 40
10.0
 40
11.0
 40
11.0
 40
11.0
 40
11.0
 10
61.18958875868055
 20
17.78082953559028
 10
61.18360731336805
 20
17.75596788194444
 10
61.17472330729166
 20
17.73361545138889
 10
61.16292317708333
 20
17.71402994791666
 10
61.15110948350694
 20
17.694580078125
 10
61.13624403211805
 20
17.67902289496528
 10
61.11819118923611
 20
17.66749403211805
 10
61.10027398003472
 20
17.65597873263889
 10
61.07999674479166
 20
17.65028211805555
 10
61.05735948350694
 20
17.65028211805555
 10
61.05735948350694
 20
17.65028211805555
 10
60.91263834635416
 20
17.65028211805555
 10
60.91263834635416
 20
17.65028211805555
 10
60.91263834635416
 20
17.65028211805555
 10
60.91263834635416
 20
18.06722005208333
 10
60.91263834635416
 20
18.06722005208333
 10
60.91263834635416
 20
18.06722005208333
 10
61.05735948350694
 20
18.06722005208333
 10
61.05735948350694
 20
18.06722005208333
 10
61.08028157552083
 20
18.06722005208333
 10
61.10069444444444
 20
18.0615234375
 10
61.11847601996527
 20
18.05014377170139
 10
61.13639322916666
 20
18.03861490885416
 10
61.1512451171875
 20
18.02305772569444
 10
61.16305881076389
 20
18.00347222222222
 10
61.17485894097222
 20
17.98375108506944
 10
61.18375651041666
 20
17.96138509114583
 10
61.18972439236111
 20
17.93638780381944
 10
61.195556640625
 20
17.91139051649305
 10
61.1986083984375
 20
17.88528103298611
 10
61.1986083984375
 20
17.85819498697916
 10
61.1986083984375
 20
17.8316650390625
 10
61.195556640625
 20
17.80582682291666
 10
61.18958875868055
 20
17.78082953559028
 97
        0
 97
        0
 75
     0
 76
     1
 98
        0
  0
SPLINE
  5
7D
330
113
100
AcDbEntity
  8
Layer 1
370
     0
100
AcDbSpline
210
0.0
220
0.0
230
1.0
 70
    11
 71
     3
 72
    26
 73
    22
 74
     0
 42
0.000000001
 43
0.001
 40
0.0
 40
0.0
 40
0.0
 40
0.0
 40
1.0
 40
1.0
 40
1.0
 40
2.0
 40
2.0
 40
2.0
 40
3.0
 40
3.0
 40
3.0
 40
4.0
 40
4.0
 40
4.0
 40
5.0
 40
5.0
 40
5.0
 40
6.0
 40
6.0
 40
6.0
 40
7.0
 40
7.0
 40
7.0
 40
7.0
 10
60.28708224826389
 20
17.946533203125
 30
0.0
 10
60.28708224826389
 20
17.93264431423611
 30
0.0
 10
60.28291829427083
 20
17.92027452256944
 30
0.0
 10
60.27457682291666
 20
17.9093017578125
 30
0.0
 10
60.26624891493055
 20
17.89847819010416
 30
0.0
 10
60.25485568576389
 20
17.89291720920139
 30
0.0
 10
60.24027506510416
 20
17.89291720920139
 30
0.0
 10
60.24027506510416
 20
17.89291720920139
 30
0.0
 10
60.14792209201389
 20
17.89291720920139
 30
0.0
 10
60.14792209201389
 20
17.89291720920139
 30
0.0
 10
60.14792209201389
 20
17.89291720920139
 30
0.0
 10
60.14792209201389
 20
17.9959716796875
 30
0.0
 10
60.14792209201389
 20
17.9959716796875
 30
0.0
 10
60.14792209201389
 20
17.9959716796875
 30
0.0
 10
60.23916286892361
 20
17.9959716796875
 30
0.0
 10
60.23916286892361
 20
17.9959716796875
 30
0.0
 10
60.25429958767361
 20
17.9959716796875
 30
0.0
 10
60.26597764756944
 20
17.99125162760416
 30
0.0
 10
60.27444118923611
 20
17.98139105902778
 30
0.0
 10
60.28278266059027
 20
17.97166612413194
 30
0.0
 10
60.28708224826389
 20
17.96000162760416
 30
0.0
 10
60.28708224826389
 20
17.946533203125
 30
0.0
  0
HATCH
  5
7E
330
113
100
AcDbEntity
  8
Layer 1
 62
     5
440
 33554687
100
AcDbHatch
 10
0.0
 20
0.0
 30
0.0
210
0.0
220
0.0
230
1.0
  2
SOLID
 70
     1
 71
     0
 91
        1
 92
        0
 93
        1
 72
     4
 94
        3
 73
     0
 74
     0
 95
       26
 96
       22
 40
0.0
 40
0.0
 40
0.0
 40
0.0
 40
1.0
 40
1.0
 40
1.0
 40
2.0
 40
2.0
 40
2.0
 40
3.0
 40
3.0
 40
3.0
 40
4.0
 40
4.0
 40
4.0
 40
5.0
 40
5.0
 40
5.0
 40
6.0
 40
6.0
 40
6.0
 40
7.0
 40
7.0
 40
7.0
 40
7.0
 10
60.28708224826389
 20
17.946533203125
 10
60.28708224826389
 20
17.93264431423611
 10
60.28291829427083
 20
17.92027452256944
 10
60.27457682291666
 20
17.9093017578125
 10
60.26624891493055
 20
17.89847819010416
 10
60.25485568576389
 20
17.89291720920139
 10
60.24027506510416
 20
17.89291720920139
 10
60.24027506510416
 20
17.89291720920139
 10
60.14792209201389
 20
17.89291720920139
 10
60.14792209201389
 20
17.89291720920139
 10
60.14792209201389
 20
17.89291720920139
 10
60.14792209201389
 20
17.9959716796875
 10
60.14792209201389
 20
17.9959716796875
 10
60.14792209201389
 20
17.9959716796875
 10
60.23916286892361
 20
17.9959716796875
 10
60.23916286892361
 20
17.9959716796875
 10
60.25429958767361
 20
17.9959716796875
 10
60.26597764756944
 20
17.99125162760416
 10
60.27444118923611
 20
17.98139105902778
 10
60.28278266059027
 20
17.97166612413194
 10
60.28708224826389
 20
17.96000162760416
 10
60.28708224826389
 20
17.946533203125
 97
        0
 97
        0
 75
     0
 76
     1
 98
        0
  0
SPLINE
  5
7F
330
113
100
AcDbEntity
  8
Layer 1
370
     0
100
AcDbSpline
210
0.0
220
0.0
230
1.0
 70
    11
 71
     3
 72
    47
 73
    43
 74
     0
 42
0.000000001
 43
0.001
 40
0.0
 40
0.0
 40
0.0
 40
0.0
 40
1.0
 40
1.0
 40
1.0
 40
2.0
 40
2.0
 40
2.0
 40
3.0
 40
3.0
 40
3.0
 40
4.0
 40
4.0
 40
4.0
 40
5.0
 40
5.0
 40
5.0
 40
6.0
 40
6.0
 40
6.0
 40
7.0
 40
7.0
 40
7.0
 40
8.0
 40
8.0
 40
8.0
 40
9.0
 40
9.0
 40
9.0
 40
10.0
 40
10.0
 40
10.0
 40
11.0
 40
11.0
 40
11.0
 40
12.0
 40
12.0
 40
12.0
 40
13.0
 40
13.0
 40
13.0
 40
14.0
 40
14.0
 40
14.0
 40
14.0
 10
60.65972222222222
 20
17.84624565972222
 30
0.0
 10
60.65972222222222
 20
17.82903374565972
 30
0.0
 10
60.65778266059027
 20
17.81236436631944
 30
0.0
 10
60.65402560763889
 20
17.79638671875
 30
0.0
 10
60.65028211805555
 20
17.78042263454861
 30
0.0
 10
60.64458550347222
 20
17.76611328125
 30
0.0
 10
60.63694932725694
 20
17.75374348958333
 30
0.0
 10
60.62929958767361
 20
17.74138726128472
 30
0.0
 10
60.61958821614583
 20
17.73152669270833
 30
0.0
 10
60.60777452256944
 20
17.72431098090278
 30
0.0
 10
60.59583875868055
 20
17.71708170572916
 30
0.0
 10
60.58208550347222
 20
17.71360948350694
 30
0.0
 10
60.56624348958333
 20
17.71360948350694
 30
0.0
 10
60.54458279079861
 20
17.71360948350694
 30
0.0
 10
60.52639431423611
 20
17.71986219618055
 30
0.0
 10
60.51180013020833
 20
17.73250325520833
 30
0.0
 10
60.49708387586805
 20
17.74514431423611
 30
0.0
 10
60.48597547743055
 20
17.76194932725694
 30
0.0
 10
60.47874620225694
 20
17.78263346354166
 30
0.0
 10
60.47139485677083
 20
17.80333116319444
 30
0.0
 10
60.46750217013889
 20
17.82569715711805
 30
0.0
 10
60.46708170572916
 20
17.84971788194444
 30
0.0
 10
60.46750217013889
 20
17.87417263454861
 30
0.0
 10
60.47139485677083
 20
17.89763726128472
 30
0.0
 10
60.47861056857639
 20
17.92000325520833
 30
0.0
 10
60.48597547743055
 20
17.94235568576389
 30
0.0
 10
60.49625651041666
 20
17.96042209201389
 30
0.0
 10
60.50972493489583
 20
17.97431098090278
 30
0.0
 10
60.52305772569444
 20
17.98819986979166
 30
0.0
 10
60.53861490885416
 20
17.99555121527778
 30
0.0
 10
60.55653211805555
 20
17.9959716796875
 30
0.0
 10
60.57291666666666
 20
17.9959716796875
 30
0.0
 10
60.58763292100694
 20
17.99180772569444
 30
0.0
 10
60.600830078125
 20
17.98346625434028
 30
0.0
 10
60.6138916015625
 20
17.97513834635416
 30
0.0
 10
60.62486436631944
 20
17.9637451171875
 30
0.0
 10
60.63347710503472
 20
17.94944932725694
 30
0.0
 10
60.64222547743055
 20
17.93513997395833
 30
0.0
 10
60.64874945746527
 20
17.91916232638889
 30
0.0
 10
60.6531982421875
 20
17.90166558159722
 30
0.0
 10
60.65749782986111
 20
17.884033203125
 30
0.0
 10
60.65972222222222
 20
17.86555989583333
 30
0.0
 10
60.65972222222222
 20
17.84624565972222
 30
0.0
  0
HATCH
  5
80
330
113
100
AcDbEntity
  8
Layer 1
 62
     5
440
 33554687
100
AcDbHatch
 10
0.0
 20
0.0
 30
0.0
210
0.0
220
0.0
230
1.0
  2
SOLID
 70
     1
 71
     0
 91
        1
 92
        0
 93
        1
 72
     4
 94
        3
 73
     0
 74
     0
 95
       47
 96
       43
 40
0.0
 40
0.0
 40
0.0
 40
0.0
 40
1.0
 40
1.0
 40
1.0
 40
2.0
 40
2.0
 40
2.0
 40
3.0
 40
3.0
 40
3.0
 40
4.0
 40
4.0
 40
4.0
 40
5.0
 40
5.0
 40
5.0
 40
6.0
 40
6.0
 40
6.0
 40
7.0
 40
7.0
 40
7.0
 40
8.0
 40
8.0
 40
8.0
 40
9.0
 40
9.0
 40
9.0
 40
10.0
 40
10.0
 40
10.0
 40
11.0
 40
11.0
 40
11.0
 40
12.0
 40
12.0
 40
12.0
 40
13.0
 40
13.0
 40
13.0
 40
14.0
 40
14.0
 40
14.0
 40
14.0
 10
60.65972222222222
 20
17.84624565972222
 10
60.65972222222222
 20
17.82903374565972
 10
60.65778266059027
 20
17.81236436631944
 10
60.65402560763889
 20
17.79638671875
 10
60.65028211805555
 20
17.78042263454861
 10
60.64458550347222
 20
17.76611328125
 10
60.63694932725694
 20
17.75374348958333
 10
60.62929958767361
 20
17.74138726128472
 10
60.61958821614583
 20
17.73152669270833
 10
60.60777452256944
 20
17.72431098090278
 10
60.59583875868055
 20
17.71708170572916
 10
60.58208550347222
 20
17.71360948350694
 10
60.56624348958333
 20
17.71360948350694
 10
60.54458279079861
 20
17.71360948350694
 10
60.52639431423611
 20
17.71986219618055
 10
60.51180013020833
 20
17.73250325520833
 10
60.49708387586805
 20
17.74514431423611
 10
60.48597547743055
 20
17.76194932725694
 10
60.47874620225694
 20
17.78263346354166
 10
60.47139485677083
 20
17.80333116319444
 10
60.46750217013889
 20
17.82569715711805
 10
60.46708170572916
 20
17.84971788194444
 10
60.46750217013889
 20
17.87417263454861
 10
60.47139485677083
 20
17.89763726128472
 10
60.47861056857639
 20
17.92000325520833
 10
60.48597547743055
 20
17.94235568576389
 10
60.49625651041666
 20
17.96042209201389
 10
60.50972493489583
 20
17.97431098090278
 10
60.52305772569444
 20
17.98819986979166
 10
60.53861490885416
 20
17.99555121527778
 10
60.55653211805555
 20
17.9959716796875
 10
60.57291666666666
 20
17.9959716796875
 10
60.58763292100694
 20
17.99180772569444
 10
60.600830078125
 20
17.98346625434028
 10
60.6138916015625
 20
17.97513834635416
 10
60.62486436631944
 20
17.9637451171875
 10
60.63347710503472
 20
17.94944932725694
 10
60.64222547743055
 20
17.93513997395833
 10
60.64874945746527
 20
17.91916232638889
 10
60.6531982421875
 20
17.90166558159722
 10
60.65749782986111
 20
17.884033203125
 10
60.65972222222222
 20
17.86555989583333
 10
60.65972222222222
 20
17.84624565972222
 97
        0
 97
        0
 75
     0
 76
     1
 98
        0
  0
SPLINE
  5
81
330
113
100
AcDbEntity
  8
Layer 1
370
     0
100
AcDbSpline
210
0.0
220
0.0
230
1.0
 70
    11
 71
     3
 72
    32
 73
    28
 74
     0
 42
0.000000001
 43
0.001
 40
0.0
 40
0.0
 40
0.0
 40
0.0
 40
1.0
 40
1.0
 40
1.0
 40
2.0
 40
2.0
 40
2.0
 40
3.0
 40
3.0
 40
3.0
 40
4.0
 40
4.0
 40
4.0
 40
5.0
 40
5.0
 40
5.0
 40
6.0
 40
6.0
 40
6.0
 40
7.0
 40
7.0
 40
7.0
 40
8.0
 40
8.0
 40
8.0
 40
9.0
 40
9.0
 40
9.0
 40
9.0
 10
61.12333170572916
 20
17.86041937934028
 30
0.0
 10
61.12333170572916
 20
17.83736165364583
 30
0.0
 10
61.12041558159722
 20
17.81570095486111
 30
0.0
 10
61.11458333333333
 20
17.79527452256944
 30
0.0
 10
61.10875108506944
 20
17.77499728732639
 30
0.0
 10
61.10013834635416
 20
17.75861273871528
 30
0.0
 10
61.08860948350694
 20
17.7459716796875
 30
0.0
 10
61.07721625434027
 20
17.73346625434028
 30
0.0
 10
61.0634765625
 20
17.72722710503472
 30
0.0
 10
61.04763454861111
 20
17.72722710503472
 30
0.0
 10
61.04763454861111
 20
17.72722710503472
 30
0.0
 10
60.98375108506944
 20
17.72722710503472
 30
0.0
 10
60.98375108506944
 20
17.72722710503472
 30
0.0
 10
60.98375108506944
 20
17.72722710503472
 30
0.0
 10
60.98375108506944
 20
17.9959716796875
 30
0.0
 10
60.98375108506944
 20
17.9959716796875
 30
0.0
 10
60.98375108506944
 20
17.9959716796875
 30
0.0
 10
61.04763454861111
 20
17.9959716796875
 30
0.0
 10
61.04763454861111
 20
17.9959716796875
 30
0.0
 10
61.0634765625
 20
17.9959716796875
 30
0.0
 10
61.07721625434027
 20
17.98971896701389
 30
0.0
 10
61.0887451171875
 20
17.97707790798611
 30
0.0
 10
61.10013834635416
 20
17.96445041232639
 30
0.0
 10
61.10888671875
 20
17.94778103298611
 30
0.0
 10
61.11458333333333
 20
17.92721896701389
 30
0.0
 10
61.12041558159722
 20
17.90667046440972
 30
0.0
 10
61.12333170572916
 20
17.88430447048611
 30
0.0
 10
61.12333170572916
 20
17.86041937934028
 30
0.0
  0
HATCH
  5
82
330
113
100
AcDbEntity
  8
Layer 1
 62
     5
440
 33554687
100
AcDbHatch
 10
0.0
 20
0.0
 30
0.0
210
0.0
220
0.0
230
1.0
  2
SOLID
 70
     1
 71
     0
 91
        1
 92
        0
 93
        1
 72
     4
 94
        3
 73
     0
 74
     0
 95
       32
 96
       28
 40
0.0
 40
0.0
 40
0.0
 40
0.0
 40
1.0
 40
1.0
 40
1.0
 40
2.0
 40
2.0
 40
2.0
 40
3.0
 40
3.0
 40
3.0
 40
4.0
 40
4.0
 40
4.0
 40
5.0
 40
5.0
 40
5.0
 40
6.0
 40
6.0
 40
6.0
 40
7.0
 40
7.0
 40
7.0
 40
8.0
 40
8.0
 40
8.0
 40
9.0
 40
9.0
 40
9.0
 40
9.0
 10
61.12333170572916
 20
17.86041937934028
 10
61.12333170572916
 20
17.83736165364583
 10
61.12041558159722
 20
17.81570095486111
 10
61.11458333333333
 20
17.79527452256944
 10
61.10875108506944
 20
17.77499728732639
 10
61.10013834635416
 20
17.75861273871528
 10
61.08860948350694
 20
17.7459716796875
 10
61.07721625434027
 20
17.73346625434028
 10
61.0634765625
 20
17.72722710503472
 10
61.04763454861111
 20
17.72722710503472
 10
61.04763454861111
 20
17.72722710503472
 10
60.98375108506944
 20
17.72722710503472
 10
60.98375108506944
 20
17.72722710503472
 10
60.98375108506944
 20
17.72722710503472
 10
60.98375108506944
 20
17.9959716796875
 10
60.98375108506944
 20
17.9959716796875
 10
60.98375108506944
 20
17.9959716796875
 10
61.04763454861111
 20
17.9959716796875
 10
61.04763454861111
 20
17.9959716796875
 10
61.0634765625
 20
17.9959716796875
 10
61.07721625434027
 20
17.98971896701389
 10
61.0887451171875
 20
17.97707790798611
 10
61.10013834635416
 20
17.96445041232639
 10
61.10888671875
 20
17.94778103298611
 10
61.11458333333333
 20
17.92721896701389
 10
61.12041558159722
 20
17.90667046440972
 10
61.12333170572916
 20
17.88430447048611
 10
61.12333170572916
 20
17.86041937934028
 97
        0
 97
        0
 75
     0
 76
     1
 98
        0
  0
INSERT
  5
84
330
113
100
AcDbEntity
  8
Layer 1
100
AcDbBlockReference
  2
block 4
 10
0.0
 20
0.0
 30
0.0
  0
LWPOLYLINE
  5
95
330
113
100
AcDbEntity
  8
Layer 1
 62
     7
370
    35
100
AcDbPolyline
 90
        5
 70
     0
 43
0.0
 10
54.64815266927083
 20
16.31944444444444
 10
56.38426378038194
 20
16.31944444444444
 10
56.38426378038194
 20
14.5250244140625
 10
54.64815266927083
 20
14.5250244140625
 10
54.64815266927083
 20
16.31944444444444
  0
INSERT
  5
9D
330
113
100
AcDbEntity
  8
Layer 1
100
AcDbBlockReference
  2
block 5
 10
0.0
 20
0.0
 30
0.0
  0
SPLINE
  5
A5
330
113
100
AcDbEntity
  8
Layer 1
370
     0
100
AcDbSpline
210
0.0
220
0.0
230
1.0
 70
    11
 71
     3
 72
    29
 73
    25
 74
     0
 42
0.000000001
 43
0.001
 40
0.0
 40
0.0
 40
0.0
 40
0.0
 40
1.0
 40
1.0
 40
1.0
 40
2.0
 40
2.0
 40
2.0
 40
3.0
 40
3.0
 40
3.0
 40
4.0
 40
4.0
 40
4.0
 40
5.0
 40
5.0
 40
5.0
 40
6.0
 40
6.0
 40
6.0
 40
7.0
 40
7.0
 40
7.0
 40
8.0
 40
8.0
 40
8.0
 40
8.0
 10
65.958984375
 20
14.65585666232639
 30
0.0
 10
65.958984375
 20
14.52134874131944
 30
0.0
 10
65.83974880642361
 20
14.41231282552083
 30
0.0
 10
65.69268120659721
 20
14.41231282552083
 30
0.0
 10
65.69268120659721
 20
14.41231282552083
 30
0.0
 10
57.09186469184027
 20
14.41231282552083
 30
0.0
 10
57.09186469184027
 20
14.41231282552083
 30
0.0
 10
56.94482421875
 20
14.41231282552083
 30
0.0
 10
56.82560221354166
 20
14.52134874131944
 30
0.0
 10
56.82560221354166
 20
14.65585666232639
 30
0.0
 10
56.82560221354166
 20
14.65585666232639
 30
0.0
 10
56.82560221354166
 20
16.19026692708333
 30
0.0
 10
56.82560221354166
 20
16.19026692708333
 30
0.0
 10
56.82560221354166
 20
16.32478841145833
 30
0.0
 10
56.94482421875
 20
16.43382432725694
 30
0.0
 10
57.09186469184027
 20
16.43382432725694
 30
0.0
 10
57.09186469184027
 20
16.43382432725694
 30
0.0
 10
65.69268120659721
 20
16.43382432725694
 30
0.0
 10
65.69268120659721
 20
16.43382432725694
 30
0.0
 10
65.83974880642361
 20
16.43382432725694
 30
0.0
 10
65.958984375
 20
16.32478841145833
 30
0.0
 10
65.958984375
 20
16.19026692708333
 30
0.0
 10
65.958984375
 20
16.19026692708333
 30
0.0
 10
65.958984375
 20
14.65585666232639
 30
0.0
 10
65.958984375
 20
14.65585666232639
 30
0.0
  0
HATCH
  5
A6
330
113
100
AcDbEntity
  8
Layer 1
 62
     5
440
 33554687
100
AcDbHatch
 10
0.0
 20
0.0
 30
0.0
210
0.0
220
0.0
230
1.0
  2
SOLID
 70
     1
 71
     0
 91
        1
 92
        0
 93
        1
 72
     4
 94
        3
 73
     0
 74
     0
 95
       29
 96
       25
 40
0.0
 40
0.0
 40
0.0
 40
0.0
 40
1.0
 40
1.0
 40
1.0
 40
2.0
 40
2.0
 40
2.0
 40
3.0
 40
3.0
 40
3.0
 40
4.0
 40
4.0
 40
4.0
 40
5.0
 40
5.0
 40
5.0
 40
6.0
 40
6.0
 40
6.0
 40
7.0
 40
7.0
 40
7.0
 40
8.0
 40
8.0
 40
8.0
 40
8.0
 10
65.958984375
 20
14.65585666232639
 10
65.958984375
 20
14.52134874131944
 10
65.83974880642361
 20
14.41231282552083
 10
65.69268120659721
 20
14.41231282552083
 10
65.69268120659721
 20
14.41231282552083
 10
57.09186469184027
 20
14.41231282552083
 10
57.09186469184027
 20
14.41231282552083
 10
56.94482421875
 20
14.41231282552083
 10
56.82560221354166
 20
14.52134874131944
 10
56.82560221354166
 20
14.65585666232639
 10
56.82560221354166
 20
14.65585666232639
 10
56.82560221354166
 20
16.19026692708333
 10
56.82560221354166
 20
16.19026692708333
 10
56.82560221354166
 20
16.32478841145833
 10
56.94482421875
 20
16.43382432725694
 10
57.09186469184027
 20
16.43382432725694
 10
57.09186469184027
 20
16.43382432725694
 10
65.69268120659721
 20
16.43382432725694
 10
65.69268120659721
 20
16.43382432725694
 10
65.83974880642361
 20
16.43382432725694
 10
65.958984375
 20
16.32478841145833
 10
65.958984375
 20
16.19026692708333
 10
65.958984375
 20
16.19026692708333
 10
65.958984375
 20
14.65585666232639
 10
65.958984375
 20
14.65585666232639
 97
        0
 97
        0
 75
     0
 76
     1
 98
        0
  0
INSERT
  5
A8
330
113
100
AcDbEntity
  8
Layer 1
100
AcDbBlockReference
  2
block 6
 10
0.0
 20
0.0
 30
0.0
  0
INSERT
  5
F5
330
113
100
AcDbEntity
  8
Layer 1
100
AcDbBlockReference
  2
block 8
 10
0.0
 20
0.0
 30
0.0
  0
VIEWPORT
  5
1C5
330
1C1
100
AcDbEntity
 67
     1
  8
0
100
AcDbViewport
 10
5.25
 20
4.0
 30
0.0
 40
11.638
 41
8.993
 68
     1
 69
     1
 12
5.25
 22
4.0
 13
0.0
 23
0.0
 14
0.5
 24
0.5
 15
0.5
 25
0.5
 16
0.0
 26
0.0
 36
1.0
 17
0.0
 27
0.0
 37
0.0
 42
50.0
 43
0.0
 44
0.0
 45
8.993
 50
0.0
 51
0.0
 72
   100
 90
   557152
  1

281
     0
 71
     1
 74
     0
110
0.0
120
0.0
130
0.0
111
1.0
121
0.0
131
0.0
112
0.0
122
1.0
132
0.0
 79
     0
146
0.0
170
     0
 61
     5
348
123
292
     1
282
     1
141
0.0
142
0.0
 63
   256
361
1C6
  0
ENDSEC
  0
SECTION
  2
OBJECTS
  0
DICTIONARY
  5
101
330
0
100
AcDbDictionary
281
     1
  3
ACAD_DETAILVIEWSTYLE
350
1E3
  3
ACAD_GROUP
350
102
  3
ACAD_LAYOUT
350
10E
  3
ACAD_MATERIAL
350
137
  3
ACAD_MLEADERSTYLE
350
14F
  3
ACAD_MLINESTYLE
350
10B
  3
ACAD_PLOTSETTINGS
350
10D
  3
ACAD_PLOTSTYLENAME
350
103
  3
ACAD_SCALELIST
350
13B
  3
ACAD_SECTIONVIEWSTYLE
350
1E4
  3
ACAD_TABLESTYLE
350
14D
  3
ACAD_VISUALSTYLE
350
11E
  3
ACDB_RECOMPOSE_DATA
350
1E0
  3
AcDbVariableDictionary
350
1DC
  3
QCAD_OBJECTS
350
153
  0
SUN
  5
151
330
11D
100
AcDbSun
 90
        1
290
     0
 63
     7
421
 16777215
 40
1.0
291
     1
 91
  2455826
 92
 54000000
292
     0
 70
     2
 71
   256
280
     1
  0
SUN
  5
1C0
330
1BF
100
AcDbSun
 90
        1
290
     0
 63
     7
421
 16777215
 40
1.0
291
     1
 91
  2455826
 92
 54000000
292
     0
 70
     2
 71
   256
280
     1
  0
SUN
  5
1C6
330
1C5
100
AcDbSun
 90
        1
290
     0
 63
     7
421
 16777215
 40
1.0
291
     1
 91
  2455826
 92
 54000000
292
     0
 70
     2
 71
   256
280
     1
  0
DICTIONARY
  5
1E3
102
{ACAD_REACTORS
330
101
102
}
330
101
100
AcDbDictionary
281
     1
  0
DICTIONARY
  5
102
102
{ACAD_REACTORS
330
101
102
}
330
101
100
AcDbDictionary
281
     1
  0
DICTIONARY
  5
10E
102
{ACAD_REACTORS
330
101
102
}
330
101
100
AcDbDictionary
281
     1
  3
Layout1
350
112
  3
Layout2
350
1C2
  3
Model
350
116
  0
DICTIONARY
  5
137
102
{ACAD_REACTORS
330
101
102
}
330
101
100
AcDbDictionary
281
     1
  3
ByBlock
350
139
  3
ByLayer
350
138
  3
Global
350
13A
  0
DICTIONARY
  5
14F
102
{ACAD_REACTORS
330
101
102
}
330
101
100
AcDbDictionary
281
     1
  3
Standard
350
150
  0
DICTIONARY
  5
10B
102
{ACAD_REACTORS
330
101
102
}
330
101
100
AcDbDictionary
281
     1
  3
Standard
350
10C
  0
DICTIONARY
  5
10D
102
{ACAD_REACTORS
330
101
102
}
330
101
100
AcDbDictionary
281
     1
  0
ACDBDICTIONARYWDFLT
  5
103
102
{ACAD_REACTORS
330
101
102
}
330
101
100
AcDbDictionary
281
     1
  3
Normal
350
104
100
AcDbDictionaryWithDefault
340
104
  0
DICTIONARY
  5
13B
102
{ACAD_REACTORS
330
101
102
}
330
101
100
AcDbDictionary
281
     1
  3
A0
350
13C
  3
A1
350
13D
  3
A2
350
13E
  3
A3
350
13F
  3
A4
350
140
  3
A5
350
141
  3
A6
350
142
  3
A7
350
143
  3
A8
350
144
  3
A9
350
145
  3
B1
350
146
  3
B2
350
147
  3
B3
350
148
  3
B4
350
149
  3
B5
350
14A
  3
B6
350
14B
  3
B7
350
14C
  0
DICTIONARY
  5
1E4
102
{ACAD_REACTORS
330
101
102
}
330
101
100
AcDbDictionary
281
     1
  0
DICTIONARY
  5
14D
102
{ACAD_REACTORS
330
101
102
}
330
101
100
AcDbDictionary
281
     1
  3
Standard
350
14E
  0
DICTIONARY
  5
11E
102
{ACAD_REACTORS
330
101
102
}
330
101
100
AcDbDictionary
281
     1
  3
2dWireframe
350
123
  3
Basic
350
126
  3
Brighten
350
12A
  3
ColorChange
350
12E
  3
Conceptual
350
128
  3
Dim
350
129
  3
EdgeColorOff
350
131
  3
Facepattern
350
12D
  3
Flat
350
11F
  3
FlatWithEdges
350
120
  3
Gouraud
350
121
  3
GouraudWithEdges
350
122
  3
Hidden
350
125
  3
JitterOff
350
12F
  3
Linepattern
350
12C
  3
OverhangOff
350
130
  3
Realistic
350
127
  3
Shaded
350
136
  3
Shaded with edges
350
135
  3
Shades of Gray
350
132
  3
Sketchy
350
133
  3
Thicken
350
12B
  3
Wireframe
350
124
  3
X-Ray
350
134
  0
XRECORD
  5
1E0
102
{ACAD_REACTORS
330
101
102
}
330
101
100
AcDbXrecord
280
     1
 90
        1
330
14E
  0
DICTIONARY
  5
1DC
102
{ACAD_REACTORS
330
101
102
}
330
101
100
AcDbDictionary
281
     1
  3
CANNOSCALE
350
1DD
  3
CMLEADERSTYLE
350
1E2
  3
CTABLESTYLE
350
1E1
  0
DICTIONARY
  5
153
102
{ACAD_REACTORS
330
101
102
}
330
101
100
AcDbDictionary
281
     1
  3
ColorSettings/BackgroundColor
350
155
  3
ColorSettings/ColorMode
350
156
  3
Grid/DisplayGrid00
350
157
  3
Grid/DisplayGrid01
350
158
  3
Grid/DisplayGrid02
350
159
  3
Grid/DisplayGrid03
350
15A
  3
Grid/GridSpacingX00
350
15B
  3
Grid/GridSpacingX01
350
15C
  3
Grid/GridSpacingX02
350
15D
  3
Grid/GridSpacingX03
350
15E
  3
Grid/GridSpacingY00
350
15F
  3
Grid/GridSpacingY01
350
160
  3
Grid/GridSpacingY02
350
161
  3
Grid/GridSpacingY03
350
162
  3
Grid/IsometricGrid00
350
163
  3
Grid/IsometricGrid01
350
164
  3
Grid/IsometricGrid02
350
165
  3
Grid/IsometricGrid03
350
166
  3
Grid/IsometricProjection00
350
167
  3
Grid/IsometricProjection01
350
168
  3
Grid/IsometricProjection02
350
169
  3
Grid/IsometricProjection03
350
16A
  3
Grid/MetaGridSpacingX00
350
16B
  3
Grid/MetaGridSpacingX01
350
16C
  3
Grid/MetaGridSpacingX02
350
16D
  3
Grid/MetaGridSpacingX03
350
16E
  3
Grid/MetaGridSpacingY00
350
16F
  3
Grid/MetaGridSpacingY01
350
170
  3
Grid/MetaGridSpacingY02
350
171
  3
Grid/MetaGridSpacingY03
350
172
  3
MultiPageSettings/Columns
350
173
  3
MultiPageSettings/GlueMarginsBottom
350
174
  3
MultiPageSettings/GlueMarginsLeft
350
175
  3
MultiPageSettings/GlueMarginsRight
350
176
  3
MultiPageSettings/GlueMarginsTop
350
177
  3
MultiPageSettings/PrintCropMarks
350
178
  3
MultiPageSettings/Rows
350
179
  3
PageSettings/OffsetX
350
17A
  3
PageSettings/OffsetY
350
17B
  3
PageSettings/PageOrientation
350
17C
  3
PageSettings/PaperHeight
350
17D
  3
PageSettings/PaperWidth
350
17E
  3
PageSettings/Scale
350
17F
  3
PageSettings/ShowPaperBorders
350
180
  3
PageTagSettings/EnablePageTags
350
181
  3
PageTagSettings/TagAlignment
350
182
  3
PageTagSettings/TagFont
350
183
  3
PageTagSettings/TagPosition
350
184
  3
QCADVersion
350
185
  3
UnitSettings/PaperUnit
350
186
  3
ViewportCenter
350
187
  3
ViewportHeight
350
188
  3
ViewportWidth
350
189
  0
LAYOUT
  5
112
102
{ACAD_REACTORS
330
10E
102
}
330
10E
100
AcDbPlotSettings
  1

  2
none_device
  4
Letter_(8.50_x_11.00_Inches)
  6

 40
6.35
 41
6.35
 42
6.35001
 43
6.35001
 44
215.9
 45
279.4
 46
0.0
 47
0.0
 48
0.0
 49
0.0
140
0.0
141
0.0
142
1.0
143
1.0
 70
   688
 72
     0
 73
     1
 74
     5
  7

 75
    16
 76
     0
 77
     2
 78
   300
147
1.0
148
0.0
149
0.0
100
AcDbLayout
  1
Layout1
 70
     1
 71
     1
 10
-0.25
 20
-0.25
 11
10.75
 21
8.25
 12
0.0
 22
0.0
 32
0.0
 14
1.000000000000000E+20
 24
1.000000000000000E+20
 34
1.000000000000000E+20
 15
-1.000000000000000E+20
 25
-1.000000000000000E+20
 35
-1.000000000000000E+20
146
0.0
 13
0.0
 23
0.0
 33
0.0
 16
1.0
 26
0.0
 36
0.0
 17
0.0
 27
1.0
 37
0.0
 76
     0
330
10F
331
1BF
  0
LAYOUT
  5
1C2
102
{ACAD_REACTORS
330
10E
102
}
330
10E
100
AcDbPlotSettings
  1

  2
none_device
  4
Letter_(8.50_x_11.00_Inches)
  6

 40
6.35
 41
6.35
 42
6.35001
 43
6.35001
 44
215.9
 45
279.4
 46
0.0
 47
0.0
 48
0.0
 49
0.0
140
0.0
141
0.0
142
1.0
143
1.0
 70
   688
 72
     0
 73
     1
 74
     5
  7

 75
    16
 76
     0
 77
     2
 78
   300
147
1.0
148
0.0
149
0.0
100
AcDbLayout
  1
Layout2
 70
     1
 71
     2
 10
0.0
 20
0.0
 11
0.0
 21
0.0
 12
0.0
 22
0.0
 32
0.0
 14
0.0
 24
0.0
 34
0.0
 15
0.0
 25
0.0
 35
0.0
146
0.0
 13
0.0
 23
0.0
 33
0.0
 16
1.0
 26
0.0
 36
0.0
 17
0.0
 27
1.0
 37
0.0
 76
     0
330
1C1
331
1C5
  0
LAYOUT
  5
116
102
{ACAD_REACTORS
330
10E
102
}
330
10E
100
AcDbPlotSettings
  1

  2
none_device
  4
Letter_(8.50_x_11.00_Inches)
  6

 40
6.35
 41
6.35
 42
6.35000508
 43
6.35000508
 44
215.9
 45
279.4
 46
0.0
 47
0.0
 48
0.0
 49
0.0
140
0.0
141
0.0
142
1.0
143
1.0
 70
  1712
 72
     0
 73
     0
 74
     0
  7

 75
     0
 76
     0
 77
     2
 78
   300
147
1.0
148
0.0
149
0.0
100
AcDbLayout
  1
Model
 70
     1
 71
     0
 10
0.0
 20
0.0
 11
12.0
 21
9.0
 12
0.0
 22
0.0
 32
0.0
 14
54.48745388454861
 24
14.40738932291667
 34
0.0
 15
65.958984375
 25
21.12567816840278
 35
0.0
146
0.0
 13
0.0
 23
0.0
 33
0.0
 16
1.0
 26
0.0
 36
0.0
 17
0.0
 27
1.0
 37
0.0
 76
     0
330
113
331
11D
  0
MATERIAL
  5
139
102
{ACAD_REACTORS
330
137
102
}
330
137
100
AcDbMaterial
  1
ByBlock
 72
     1
 94
      127
  0
MATERIAL
  5
138
102
{ACAD_REACTORS
330
137
102
}
330
137
100
AcDbMaterial
  1
ByLayer
 72
     1
 94
      127
  0
MATERIAL
  5
13A
102
{ACAD_REACTORS
330
137
102
}
330
137
100
AcDbMaterial
  1
Global
 72
     1
 94
      127
  0
MLEADERSTYLE
  5
150
102
{ACAD_REACTORS
330
14F
102
}
330
14F
100
AcDbMLeaderStyle
179
     2
170
     2
171
     1
172
     0
 90
        2
 40
0.0
 41
0.0
173
     1
 91
-1056964608
340
108
 92
       -2
290
     1
 42
0.09
291
     1
 43
0.36
  3
Standard
341
0
 44
0.18
300

342
106
174
     1
178
     6
175
     1
176
     0
 93
-1056964608
 45
0.18
292
     0
297
     0
 46
0.18
343
0
 94
-1056964608
 47
1.0
 49
1.0
140
1.0
293
     1
141
0.0
294
     1
177
     0
142
1.0
295
     0
296
     0
143
0.125
271
     0
272
     9
273
     9
298
     0
  0
MLINESTYLE
  5
10C
102
{ACAD_REACTORS
330
10B
102
}
330
10B
100
AcDbMlineStyle
  2
Standard
 70
     0
  3

 62
   256
 51
90.0
 52
90.0
 71
     2
 49
0.5
 62
   256
  6
BYLAYER
 49
-0.5
 62
   256
  6
BYLAYER
  0
ACDBPLACEHOLDER
  5
104
102
{ACAD_REACTORS
330
103
102
}
330
103
  0
SCALE
  5
13C
102
{ACAD_REACTORS
330
13B
102
}
330
13B
100
AcDbScale
 70
     0
300
1:1
140
1.0
141
1.0
290
     1
  0
SCALE
  5
13D
102
{ACAD_REACTORS
330
13B
102
}
330
13B
100
AcDbScale
 70
     0
300
1/128" = 1'-0"
140
0.0078125
141
12.0
290
     0
  0
SCALE
  5
13E
102
{ACAD_REACTORS
330
13B
102
}
330
13B
100
AcDbScale
 70
     0
300
1/64" = 1'-0"
140
0.015625
141
12.0
290
     0
  0
SCALE
  5
13F
102
{ACAD_REACTORS
330
13B
102
}
330
13B
100
AcDbScale
 70
     0
300
1/32" = 1'-0"
140
0.03125
141
12.0
290
     0
  0
SCALE
  5
140
102
{ACAD_REACTORS
330
13B
102
}
330
13B
100
AcDbScale
 70
     0
300
1/16" = 1'-0"
140
0.0625
141
12.0
290
     0
  0
SCALE
  5
141
102
{ACAD_REACTORS
330
13B
102
}
330
13B
100
AcDbScale
 70
     0
300
3/32" = 1'-0"
140
0.09375
141
12.0
290
     0
  0
SCALE
  5
142
102
{ACAD_REACTORS
330
13B
102
}
330
13B
100
AcDbScale
 70
     0
300
1/8" = 1'-0"
140
0.125
141
12.0
290
     0
  0
SCALE
  5
143
102
{ACAD_REACTORS
330
13B
102
}
330
13B
100
AcDbScale
 70
     0
300
3/16" = 1'-0"
140
0.1875
141
12.0
290
     0
  0
SCALE
  5
144
102
{ACAD_REACTORS
330
13B
102
}
330
13B
100
AcDbScale
 70
     0
300
1/4" = 1'-0"
140
0.25
141
12.0
290
     0
  0
SCALE
  5
145
102
{ACAD_REACTORS
330
13B
102
}
330
13B
100
AcDbScale
 70
     0
300
3/8" = 1'-0"
140
0.375
141
12.0
290
     0
  0
SCALE
  5
146
102
{ACAD_REACTORS
330
13B
102
}
330
13B
100
AcDbScale
 70
     0
300
1/2" = 1'-0"
140
0.5
141
12.0
290
     0
  0
SCALE
  5
147
102
{ACAD_REACTORS
330
13B
102
}
330
13B
100
AcDbScale
 70
     0
300
3/4" = 1'-0"
140
0.75
141
12.0
290
     0
  0
SCALE
  5
148
102
{ACAD_REACTORS
330
13B
102
}
330
13B
100
AcDbScale
 70
     0
300
1" = 1'-0"
140
1.0
141
12.0
290
     0
  0
SCALE
  5
149
102
{ACAD_REACTORS
330
13B
102
}
330
13B
100
AcDbScale
 70
     0
300
1-1/2" = 1'-0"
140
1.5
141
12.0
290
     0
  0
SCALE
  5
14A
102
{ACAD_REACTORS
330
13B
102
}
330
13B
100
AcDbScale
 70
     0
300
3" = 1'-0"
140
3.0
141
12.0
290
     0
  0
SCALE
  5
14B
102
{ACAD_REACTORS
330
13B
102
}
330
13B
100
AcDbScale
 70
     0
300
6" = 1'-0"
140
6.0
141
12.0
290
     0
  0
SCALE
  5
14C
102
{ACAD_REACTORS
330
13B
102
}
330
13B
100
AcDbScale
 70
     0
300
1'-0" = 1'-0"
140
12.0
141
12.0
290
     0
  0
TABLESTYLE
  5
14E
102
{ACAD_REACTORS
330
14D
102
}
102
{ACAD_XDICTIONARY
360
1DE
102
}
330
14D
100
AcDbTableStyle
  3
Standard
 70
     0
 71
     0
 40
0.06
 41
0.06
280
     0
281
     0
  7
Standard
140
0.18
170
     2
 62
     0
 63
   257
283
     0
 90
        4
 91
        0
  1

274
    -2
284
     1
 64
     0
275
    -2
285
     1
 65
     0
276
    -2
286
     1
 66
     0
277
    -2
287
     1
 67
     0
278
    -2
288
     1
 68
     0
279
    -2
289
     1
 69
     0
  7
Standard
140
0.25
170
     5
 62
     0
 63
   257
283
     0
 90
        4
 91
        0
  1

274
    -2
284
     1
 64
     0
275
    -2
285
     1
 65
     0
276
    -2
286
     1
 66
     0
277
    -2
287
     1
 67
     0
278
    -2
288
     1
 68
     0
279
    -2
289
     1
 69
     0
  7
Standard
140
0.18
170
     5
 62
     0
 63
   257
283
     0
 90
        4
 91
        0
  1

274
    -2
284
     1
 64
     0
275
    -2
285
     1
 65
     0
276
    -2
286
     1
 66
     0
277
    -2
287
     1
 67
     0
278
    -2
288
     1
 68
     0
279
    -2
289
     1
 69
     0
  0
VISUALSTYLE
  5
123
102
{ACAD_REACTORS
330
11E
102
}
330
11E
100
AcDbVisualStyle
  2
2dWireframe
 70
     4
177
     3
291
     0
 70
    58
 90
        0
176
     1
 90
        2
176
     1
 90
        0
176
     1
 90
        0
176
     1
 40
0.6
176
     1
 40
30.0
176
     1
 62
     7
420
 16777215
176
     1
 90
        1
176
     1
 90
        4
176
     1
 62
     7
176
     1
 62
   257
176
     1
 90
        1
176
     1
 90
        1
176
     1
 40
1.0
176
     1
 90
        0
176
     1
 62
   257
176
     1
 40
1.0
176
     1
 90
        1
176
     1
 90
        6
176
     1
 90
        2
176
     1
 62
     7
176
     1
 90
        5
176
     1
 90
        0
176
     1
 90
        0
176
     1
290
     0
176
     1
 90
        1
176
     1
 40
0.0
176
     1
 90
        0
176
     1
290
     1
176
     1
290
     1
176
     1
290
     0
176
     1
290
     0
176
     1
290
     0
176
     1
290
     0
176
     1
290
     0
176
     1
290
     0
176
     1
290
     0
176
     1
 90
       50
176
     1
 40
0.0
176
     1
 40
1.0
176
     1
 90
        0
176
     1
 62
    18
420
        0
176
     1
 90
       50
176
     1
 90
        3
176
     1
 62
     5
420
      255
176
     1
290
     0
176
     1
 90
       50
176
     1
 90
       50
176
     1
 90
       50
176
     1
290
     0
176
     1
 90
       50
176
     1
 62
   256
176
     0
 40
1.0
176
     0
 90
        2
176
     1
  1
strokes_ogs.tif
176
     1
290
     0
176
     1
 40
1.0
176
     1
 40
1.0
176
     1
  0
VISUALSTYLE
  5
126
102
{ACAD_REACTORS
330
11E
102
}
330
11E
100
AcDbVisualStyle
  2
Basic
 70
     7
177
     3
291
     1
 70
    58
 90
        1
176
     1
 90
        0
176
     1
 90
        1
176
     1
 90
        0
176
     1
 40
0.6
176
     1
 40
30.0
176
     1
 62
     7
420
 16777215
176
     1
 90
        0
176
     1
 90
        4
176
     1
 62
     7
176
     1
 62
   257
176
     1
 90
        1
176
     1
 90
        1
176
     1
 40
1.0
176
     1
 90
        8
176
     1
 62
     7
176
     1
 40
1.0
176
     1
 90
        1
176
     1
 90
        6
176
     1
 90
        2
176
     1
 62
     7
176
     1
 90
        5
176
     1
 90
        0
176
     1
 90
        0
176
     1
290
     0
176
     1
 90
        1
176
     1
 40
0.0
176
     1
 90
        0
176
     1
290
     0
176
     1
290
     1
176
     1
290
     1
176
     1
290
     0
176
     1
290
     0
176
     1
290
     0
176
     1
290
     0
176
     1
290
     0
176
     1
290
     0
176
     1
 90
       50
176
     1
 40
0.0
176
     1
 40
1.0
176
     1
 90
        0
176
     1
 62
    18
420
        0
176
     1
 90
       50
176
     1
 90
        3
176
     1
 62
     5
420
      255
176
     1
290
     0
176
     1
 90
       50
176
     1
 90
       50
176
     1
 90
       50
176
     1
290
     0
176
     1
 90
       50
176
     1
 62
   256
176
     0
 40
1.0
176
     0
 90
        2
176
     1
  1
strokes_ogs.tif
176
     1
290
     0
176
     1
 40
1.0
176
     1
 40
1.0
176
     1
  0
VISUALSTYLE
  5
12A
102
{ACAD_REACTORS
330
11E
102
}
330
11E
100
AcDbVisualStyle
  2
Brighten
 70
    12
177
     3
291
     1
 70
    58
 90
        2
176
     1
 90
        2
176
     1
 90
        0
176
     1
 90
        0
176
     1
 40
0.6
176
     1
 40
30.0
176
     1
 62
     7
420
 16777215
176
     1
 90
        1
176
     1
 90
        4
176
     1
 62
     7
176
     1
 62
   257
176
     1
 90
        1
176
     1
 90
        1
176
     1
 40
1.0
176
     1
 90
        8
176
     1
 62
     7
176
     1
 40
1.0
176
     1
 90
        1
176
     1
 90
        6
176
     1
 90
        2
176
     1
 62
     7
176
     1
 90
        5
176
     1
 90
        0
176
     1
 90
        0
176
     1
290
     0
176
     1
 90
        1
176
     1
 40
50.0
176
     1
 90
        0
176
     1
290
     0
176
     1
290
     1
176
     1
290
     1
176
     1
290
     0
176
     1
290
     0
176
     1
290
     0
176
     1
290
     0
176
     1
290
     0
176
     1
290
     0
176
     1
 90
       50
176
     1
 40
0.0
176
     1
 40
1.0
176
     1
 90
        0
176
     1
 62
    18
420
        0
176
     1
 90
       50
176
     1
 90
        3
176
     1
 62
     5
420
      255
176
     1
290
     0
176
     1
 90
       50
176
     1
 90
       50
176
     1
 90
       50
176
     1
290
     0
176
     1
 90
       50
176
     1
 62
   256
176
     0
 40
1.0
176
     0
 90
        2
176
     1
  1
strokes_ogs.tif
176
     1
290
     0
176
     1
 40
1.0
176
     1
 40
1.0
176
     1
  0
VISUALSTYLE
  5
12E
102
{ACAD_REACTORS
330
11E
102
}
330
11E
100
AcDbVisualStyle
  2
ColorChange
 70
    16
177
     3
291
     1
 70
    58
 90
        2
176
     1
 90
        2
176
     1
 90
        3
176
     1
 90
        0
176
     1
 40
0.6
176
     1
 40
30.0
176
     1
 62
     8
420
  8421504
176
     1
 90
        1
176
     1
 90
        4
176
     1
 62
     7
176
     1
 62
   257
176
     1
 90
        1
176
     1
 90
        1
176
     1
 40
1.0
176
     1
 90
        8
176
     1
 62
     8
420
  8421504
176
     1
 40
1.0
176
     1
 90
        1
176
     1
 90
        6
176
     1
 90
        2
176
     1
 62
     7
176
     1
 90
        5
176
     1
 90
        0
176
     1
 90
        0
176
     1
290
     0
176
     1
 90
        1
176
     1
 40
0.0
176
     1
 90
        0
176
     1
290
     0
176
     1
290
     1
176
     1
290
     1
176
     1
290
     0
176
     1
290
     0
176
     1
290
     0
176
     1
290
     0
176
     1
290
     0
176
     1
290
     0
176
     1
 90
       50
176
     1
 40
0.0
176
     1
 40
1.0
176
     1
 90
        0
176
     1
 62
    18
420
        0
176
     1
 90
       50
176
     1
 90
        3
176
     1
 62
     5
420
      255
176
     1
290
     0
176
     1
 90
       50
176
     1
 90
       50
176
     1
 90
       50
176
     1
290
     0
176
     1
 90
       50
176
     1
 62
   256
176
     0
 40
1.0
176
     0
 90
        2
176
     1
  1
strokes_ogs.tif
176
     1
290
     0
176
     1
 40
1.0
176
     1
 40
1.0
176
     1
  0
VISUALSTYLE
  5
128
102
{ACAD_REACTORS
330
11E
102
}
330
11E
100
AcDbVisualStyle
  2
Conceptual
 70
     9
177
     3
291
     0
 70
    58
 90
        3
176
     1
 90
        2
176
     1
 90
        0
176
     1
 90
        0
176
     1
 40
0.6
176
     1
 40
30.0
176
     1
 62
     7
420
 16777215
176
     1
 90
        2
176
     1
 90
        2
176
     1
 62
     7
176
     1
 62
   257
176
     1
 90
        1
176
     1
 90
        1
176
     1
 40
179.0
176
     1
 90
        8
176
     1
 62
     7
176
     1
 40
1.0
176
     1
 90
        1
176
     1
 90
        6
176
     1
 90
        2
176
     1
 62
     7
176
     1
 90
        3
176
     1
 90
        0
176
     1
 90
        0
176
     1
290
     0
176
     1
 90
        1
176
     1
 40
0.0
176
     1
 90
        0
176
     1
290
     0
176
     1
290
     1
176
     1
290
     1
176
     1
290
     0
176
     1
290
     0
176
     1
290
     0
176
     1
290
     0
176
     1
290
     0
176
     1
290
     0
176
     1
 90
       50
176
     1
 40
0.0
176
     1
 40
1.0
176
     1
 90
        0
176
     1
 62
    18
420
        0
176
     1
 90
       50
176
     1
 90
        3
176
     1
 62
     5
420
      255
176
     1
290
     0
176
     1
 90
       50
176
     1
 90
       50
176
     1
 90
       50
176
     1
290
     0
176
     1
 90
       50
176
     1
 62
   256
176
     0
 40
1.0
176
     0
 90
        2
176
     1
  1
strokes_ogs.tif
176
     1
290
     0
176
     1
 40
1.0
176
     1
 40
1.0
176
     1
  0
VISUALSTYLE
  5
129
102
{ACAD_REACTORS
330
11E
102
}
330
11E
100
AcDbVisualStyle
  2
Dim
 70
    11
177
     3
291
     1
 70
    58
 90
        2
176
     1
 90
        2
176
     1
 90
        0
176
     1
 90
        0
176
     1
 40
0.6
176
     1
 40
30.0
176
     1
 62
     7
420
 16777215
176
     1
 90
        1
176
     1
 90
        4
176
     1
 62
     7
176
     1
 62
   257
176
     1
 90
        1
176
     1
 90
        1
176
     1
 40
1.0
176
     1
 90
        8
176
     1
 62
     7
176
     1
 40
1.0
176
     1
 90
        1
176
     1
 90
        6
176
     1
 90
        2
176
     1
 62
     7
176
     1
 90
        5
176
     1
 90
        0
176
     1
 90
        0
176
     1
290
     0
176
     1
 90
        1
176
     1
 40
-50.0
176
     1
 90
        0
176
     1
290
     0
176
     1
290
     1
176
     1
290
     1
176
     1
290
     0
176
     1
290
     0
176
     1
290
     0
176
     1
290
     0
176
     1
290
     0
176
     1
290
     0
176
     1
 90
       50
176
     1
 40
0.0
176
     1
 40
1.0
176
     1
 90
        0
176
     1
 62
    18
420
        0
176
     1
 90
       50
176
     1
 90
        3
176
     1
 62
     5
420
      255
176
     1
290
     0
176
     1
 90
       50
176
     1
 90
       50
176
     1
 90
       50
176
     1
290
     0
176
     1
 90
       50
176
     1
 62
   256
176
     0
 40
1.0
176
     0
 90
        2
176
     1
  1
strokes_ogs.tif
176
     1
290
     0
176
     1
 40
1.0
176
     1
 40
1.0
176
     1
  0
VISUALSTYLE
  5
131
102
{ACAD_REACTORS
330
11E
102
}
330
11E
100
AcDbVisualStyle
  2
EdgeColorOff
 70
    22
177
     3
291
     1
 70
    58
 90
        2
176
     0
 90
        2
176
     0
 90
        0
176
     0
 90
        0
176
     0
 40
0.6
176
     0
 40
30.0
176
     0
 62
     7
420
 16777215
176
     0
 90
        1
176
     0
 90
        4
176
     0
 62
     7
176
     0
 62
   257
176
     0
 90
        1
176
     0
 90
        1
176
     0
 40
1.0
176
     0
 90
        8
176
     2
 62
     7
176
     0
 40
1.0
176
     0
 90
        1
176
     0
 90
        6
176
     0
 90
        2
176
     0
 62
     7
176
     0
 90
        5
176
     0
 90
        0
176
     0
 90
        0
176
     0
290
     0
176
     0
 90
        1
176
     0
 40
0.0
176
     0
 90
        0
176
     0
290
     0
176
     0
290
     1
176
     0
290
     1
176
     0
290
     0
176
     0
290
     0
176
     0
290
     0
176
     0
290
     0
176
     0
290
     0
176
     0
290
     0
176
     0
 90
       50
176
     0
 40
0.0
176
     0
 40
1.0
176
     0
 90
        0
176
     0
 62
    18
420
        0
176
     0
 90
       50
176
     0
 90
        3
176
     0
 62
     5
420
      255
176
     0
290
     0
176
     0
 90
       50
176
     0
 90
       50
176
     0
 90
       50
176
     0
290
     0
176
     0
 90
       50
176
     0
 62
   256
176
     0
 40
1.0
176
     0
 90
        2
176
     0
  1
strokes_ogs.tif
176
     0
290
     0
176
     0
 40
1.0
176
     0
 40
1.0
176
     0
  0
VISUALSTYLE
  5
12D
102
{ACAD_REACTORS
330
11E
102
}
330
11E
100
AcDbVisualStyle
  2
Facepattern
 70
    15
177
     3
291
     1
 70
    58
 90
        2
176
     1
 90
        2
176
     1
 90
        0
176
     1
 90
        0
176
     1
 40
0.6
176
     1
 40
30.0
176
     1
 62
     7
420
 16777215
176
     1
 90
        1
176
     1
 90
        4
176
     1
 62
     7
176
     1
 62
   257
176
     1
 90
        1
176
     1
 90
        1
176
     1
 40
1.0
176
     1
 90
        8
176
     1
 62
     7
176
     1
 40
1.0
176
     1
 90
        1
176
     1
 90
        6
176
     1
 90
        2
176
     1
 62
     7
176
     1
 90
        5
176
     1
 90
        0
176
     1
 90
        0
176
     1
290
     0
176
     1
 90
        1
176
     1
 40
0.0
176
     1
 90
        0
176
     1
290
     0
176
     1
290
     1
176
     1
290
     1
176
     1
290
     0
176
     1
290
     0
176
     1
290
     0
176
     1
290
     0
176
     1
290
     0
176
     1
290
     0
176
     1
 90
       50
176
     1
 40
0.0
176
     1
 40
1.0
176
     1
 90
        0
176
     1
 62
    18
420
        0
176
     1
 90
       50
176
     1
 90
        3
176
     1
 62
     5
420
      255
176
     1
290
     0
176
     1
 90
       50
176
     1
 90
       50
176
     1
 90
       50
176
     1
290
     0
176
     1
 90
       50
176
     1
 62
   256
176
     0
 40
1.0
176
     0
 90
        2
176
     1
  1
strokes_ogs.tif
176
     1
290
     0
176
     1
 40
1.0
176
     1
 40
1.0
176
     1
  0
VISUALSTYLE
  5
11F
102
{ACAD_REACTORS
330
11E
102
}
330
11E
100
AcDbVisualStyle
  2
Flat
 70
     0
177
     3
291
     1
 70
    58
 90
        2
176
     1
 90
        1
176
     1
 90
        1
176
     1
 90
        2
176
     1
 40
0.6
176
     1
 40
30.0
176
     1
 62
     7
420
 16777215
176
     1
 90
        0
176
     1
 90
        0
176
     1
 62
     7
176
     1
 62
   257
176
     1
 90
        1
176
     1
 90
        1
176
     1
 40
1.0
176
     1
 90
        8
176
     1
 62
     7
176
     1
 40
1.0
176
     1
 90
        1
176
     1
 90
        6
176
     1
 90
        2
176
     1
 62
     7
176
     1
 90
        5
176
     1
 90
        0
176
     1
 90
        0
176
     1
290
     0
176
     1
 90
       13
176
     1
 40
0.0
176
     1
 90
        0
176
     1
290
     0
176
     1
290
     1
176
     1
290
     1
176
     1
290
     0
176
     1
290
     0
176
     1
290
     0
176
     1
290
     0
176
     1
290
     0
176
     1
290
     0
176
     1
 90
       50
176
     1
 40
0.0
176
     1
 40
1.0
176
     1
 90
        0
176
     1
 62
    18
420
        0
176
     1
 90
       50
176
     1
 90
        3
176
     1
 62
     5
420
      255
176
     1
290
     0
176
     1
 90
       50
176
     1
 90
       50
176
     1
 90
       50
176
     1
290
     0
176
     1
 90
       50
176
     1
 62
   256
176
     0
 40
1.0
176
     0
 90
        2
176
     1
  1
strokes_ogs.tif
176
     1
290
     0
176
     1
 40
1.0
176
     1
 40
1.0
176
     1
  0
VISUALSTYLE
  5
120
102
{ACAD_REACTORS
330
11E
102
}
330
11E
100
AcDbVisualStyle
  2
FlatWithEdges
 70
     1
177
     3
291
     1
 70
    58
 90
        2
176
     1
 90
        1
176
     1
 90
        1
176
     1
 90
        2
176
     1
 40
0.6
176
     1
 40
30.0
176
     1
 62
     7
420
 16777215
176
     1
 90
        1
176
     1
 90
        0
176
     1
 62
     7
176
     1
 62
   257
176
     1
 90
        1
176
     1
 90
        1
176
     1
 40
1.0
176
     1
 90
        0
176
     1
 62
   257
176
     1
 40
1.0
176
     1
 90
        1
176
     1
 90
        6
176
     1
 90
        2
176
     1
 62
     7
176
     1
 90
        5
176
     1
 90
        0
176
     1
 90
        0
176
     1
290
     0
176
     1
 90
       13
176
     1
 40
0.0
176
     1
 90
        0
176
     1
290
     0
176
     1
290
     1
176
     1
290
     1
176
     1
290
     0
176
     1
290
     0
176
     1
290
     0
176
     1
290
     0
176
     1
290
     0
176
     1
290
     0
176
     1
 90
       50
176
     1
 40
0.0
176
     1
 40
1.0
176
     1
 90
        0
176
     1
 62
    18
420
        0
176
     1
 90
       50
176
     1
 90
        3
176
     1
 62
     5
420
      255
176
     1
290
     0
176
     1
 90
       50
176
     1
 90
       50
176
     1
 90
       50
176
     1
290
     0
176
     1
 90
       50
176
     1
 62
   256
176
     0
 40
1.0
176
     0
 90
        2
176
     1
  1
strokes_ogs.tif
176
     1
290
     0
176
     1
 40
1.0
176
     1
 40
1.0
176
     1
  0
VISUALSTYLE
  5
121
102
{ACAD_REACTORS
330
11E
102
}
330
11E
100
AcDbVisualStyle
  2
Gouraud
 70
     2
177
     3
291
     1
 70
    58
 90
        2
176
     1
 90
        2
176
     1
 90
        1
176
     1
 90
        2
176
     1
 40
0.6
176
     1
 40
30.0
176
     1
 62
     7
420
 16777215
176
     1
 90
        0
176
     1
 90
        0
176
     1
 62
     7
176
     1
 62
   257
176
     1
 90
        1
176
     1
 90
        1
176
     1
 40
1.0
176
     1
 90
        0
176
     1
 62
     7
176
     1
 40
1.0
176
     1
 90
        1
176
     1
 90
        6
176
     1
 90
        2
176
     1
 62
     7
176
     1
 90
        5
176
     1
 90
        0
176
     1
 90
        0
176
     1
290
     0
176
     1
 90
       13
176
     1
 40
0.0
176
     1
 90
        0
176
     1
290
     0
176
     1
290
     1
176
     1
290
     1
176
     1
290
     0
176
     1
290
     0
176
     1
290
     0
176
     1
290
     0
176
     1
290
     0
176
     1
290
     0
176
     1
 90
       50
176
     1
 40
0.0
176
     1
 40
1.0
176
     1
 90
        0
176
     1
 62
    18
420
        0
176
     1
 90
       50
176
     1
 90
        3
176
     1
 62
     5
420
      255
176
     1
290
     0
176
     1
 90
       50
176
     1
 90
       50
176
     1
 90
       50
176
     1
290
     0
176
     1
 90
       50
176
     1
 62
   256
176
     0
 40
1.0
176
     0
 90
        2
176
     1
  1
strokes_ogs.tif
176
     1
290
     0
176
     1
 40
1.0
176
     1
 40
1.0
176
     1
  0
VISUALSTYLE
  5
122
102
{ACAD_REACTORS
330
11E
102
}
330
11E
100
AcDbVisualStyle
  2
GouraudWithEdges
 70
     3
177
     3
291
     1
 70
    58
 90
        2
176
     1
 90
        2
176
     1
 90
        1
176
     1
 90
        2
176
     1
 40
0.6
176
     1
 40
30.0
176
     1
 62
     7
420
 16777215
176
     1
 90
        1
176
     1
 90
        0
176
     1
 62
     7
176
     1
 62
   257
176
     1
 90
        1
176
     1
 90
        1
176
     1
 40
1.0
176
     1
 90
        0
176
     1
 62
   257
176
     1
 40
1.0
176
     1
 90
        1
176
     1
 90
        6
176
     1
 90
        2
176
     1
 62
     7
176
     1
 90
        5
176
     1
 90
        0
176
     1
 90
        0
176
     1
290
     0
176
     1
 90
       13
176
     1
 40
0.0
176
     1
 90
        0
176
     1
290
     0
176
     1
290
     1
176
     1
290
     1
176
     1
290
     0
176
     1
290
     0
176
     1
290
     0
176
     1
290
     0
176
     1
290
     0
176
     1
290
     0
176
     1
 90
       50
176
     1
 40
0.0
176
     1
 40
1.0
176
     1
 90
        0
176
     1
 62
    18
420
        0
176
     1
 90
       50
176
     1
 90
        3
176
     1
 62
     5
420
      255
176
     1
290
     0
176
     1
 90
       50
176
     1
 90
       50
176
     1
 90
       50
176
     1
290
     0
176
     1
 90
       50
176
     1
 62
   256
176
     0
 40
1.0
176
     0
 90
        2
176
     1
  1
strokes_ogs.tif
176
     1
290
     0
176
     1
 40
1.0
176
     1
 40
1.0
176
     1
  0
VISUALSTYLE
  5
125
102
{ACAD_REACTORS
330
11E
102
}
330
11E
100
AcDbVisualStyle
  2
Hidden
 70
     6
177
     3
291
     0
 70
    58
 90
        1
176
     1
 90
        2
176
     1
 90
        2
176
     1
 90
        0
176
     1
 40
0.6
176
     1
 40
30.0
176
     1
 62
     7
420
 16777215
176
     1
 90
        2
176
     1
 90
        2
176
     1
 62
     7
176
     1
 62
   257
176
     1
 90
        2
176
     1
 90
        1
176
     1
 40
40.0
176
     1
 90
        0
176
     1
 62
   257
176
     1
 40
1.0
176
     1
 90
        1
176
     1
 90
        6
176
     1
 90
        2
176
     1
 62
     7
176
     1
 90
        3
176
     1
 90
        0
176
     1
 90
        0
176
     1
290
     0
176
     1
 90
        1
176
     1
 40
0.0
176
     1
 90
        0
176
     1
290
     0
176
     1
290
     1
176
     1
290
     1
176
     1
290
     0
176
     1
290
     0
176
     1
290
     0
176
     1
290
     0
176
     1
290
     0
176
     1
290
     0
176
     1
 90
       50
176
     1
 40
0.0
176
     1
 40
1.0
176
     1
 90
        0
176
     1
 62
    18
420
        0
176
     1
 90
       50
176
     1
 90
        3
176
     1
 62
     5
420
      255
176
     1
290
     0
176
     1
 90
       50
176
     1
 90
       50
176
     1
 90
       50
176
     1
290
     0
176
     1
 90
       50
176
     1
 62
   256
176
     0
 40
1.0
176
     0
 90
        2
176
     1
  1
strokes_ogs.tif
176
     1
290
     0
176
     1
 40
1.0
176
     1
 40
1.0
176
     1
  0
VISUALSTYLE
  5
12F
102
{ACAD_REACTORS
330
11E
102
}
330
11E
100
AcDbVisualStyle
  2
JitterOff
 70
    20
177
     3
291
     1
 70
    58
 90
        2
176
     0
 90
        2
176
     0
 90
        0
176
     0
 90
        0
176
     0
 40
0.6
176
     0
 40
30.0
176
     0
 62
     7
420
 16777215
176
     0
 90
        1
176
     0
 90
        4
176
     0
 62
     7
176
     0
 62
   257
176
     0
 90
        1
176
     0
 90
        1
176
     0
 40
1.0
176
     0
 90
       10
176
     2
 62
     7
176
     0
 40
1.0
176
     0
 90
        1
176
     0
 90
        6
176
     0
 90
        2
176
     0
 62
     7
176
     0
 90
        5
176
     0
 90
        0
176
     0
 90
        0
176
     0
290
     0
176
     0
 90
        1
176
     0
 40
0.0
176
     0
 90
        0
176
     0
290
     0
176
     0
290
     1
176
     0
290
     1
176
     0
290
     0
176
     0
290
     0
176
     0
290
     0
176
     0
290
     0
176
     0
290
     0
176
     0
290
     0
176
     0
 90
       50
176
     0
 40
0.0
176
     0
 40
1.0
176
     0
 90
        0
176
     0
 62
    18
420
        0
176
     0
 90
       50
176
     0
 90
        3
176
     0
 62
     5
420
      255
176
     0
290
     0
176
     0
 90
       50
176
     0
 90
       50
176
     0
 90
       50
176
     0
290
     0
176
     0
 90
       50
176
     0
 62
   256
176
     0
 40
1.0
176
     0
 90
        2
176
     0
  1
strokes_ogs.tif
176
     0
290
     0
176
     0
 40
1.0
176
     0
 40
1.0
176
     0
  0
VISUALSTYLE
  5
12C
102
{ACAD_REACTORS
330
11E
102
}
330
11E
100
AcDbVisualStyle
  2
Linepattern
 70
    14
177
     3
291
     1
 70
    58
 90
        2
176
     1
 90
        2
176
     1
 90
        0
176
     1
 90
        0
176
     1
 40
0.6
176
     1
 40
30.0
176
     1
 62
     7
420
 16777215
176
     1
 90
        1
176
     1
 90
        4
176
     1
 62
     7
176
     1
 62
   257
176
     1
 90
        7
176
     1
 90
        7
176
     1
 40
1.0
176
     1
 90
        8
176
     1
 62
     7
176
     1
 40
1.0
176
     1
 90
        1
176
     1
 90
        6
176
     1
 90
        2
176
     1
 62
     7
176
     1
 90
        5
176
     1
 90
        0
176
     1
 90
        0
176
     1
290
     0
176
     1
 90
        1
176
     1
 40
0.0
176
     1
 90
        0
176
     1
290
     0
176
     1
290
     1
176
     1
290
     1
176
     1
290
     0
176
     1
290
     0
176
     1
290
     0
176
     1
290
     0
176
     1
290
     0
176
     1
290
     0
176
     1
 90
       50
176
     1
 40
0.0
176
     1
 40
1.0
176
     1
 90
        0
176
     1
 62
    18
420
        0
176
     1
 90
       50
176
     1
 90
        3
176
     1
 62
     5
420
      255
176
     1
290
     0
176
     1
 90
       50
176
     1
 90
       50
176
     1
 90
       50
176
     1
290
     0
176
     1
 90
       50
176
     1
 62
   256
176
     0
 40
1.0
176
     0
 90
        2
176
     1
  1
strokes_ogs.tif
176
     1
290
     0
176
     1
 40
1.0
176
     1
 40
1.0
176
     1
  0
VISUALSTYLE
  5
130
102
{ACAD_REACTORS
330
11E
102
}
330
11E
100
AcDbVisualStyle
  2
OverhangOff
 70
    21
177
     3
291
     1
 70
    58
 90
        2
176
     0
 90
        2
176
     0
 90
        0
176
     0
 90
        0
176
     0
 40
0.6
176
     0
 40
30.0
176
     0
 62
     7
420
 16777215
176
     0
 90
        1
176
     0
 90
        4
176
     0
 62
     7
176
     0
 62
   257
176
     0
 90
        1
176
     0
 90
        1
176
     0
 40
1.0
176
     0
 90
        9
176
     2
 62
     7
176
     0
 40
1.0
176
     0
 90
        1
176
     0
 90
        6
176
     0
 90
        2
176
     0
 62
     7
176
     0
 90
        5
176
     0
 90
        0
176
     0
 90
        0
176
     0
290
     0
176
     0
 90
        1
176
     0
 40
0.0
176
     0
 90
        0
176
     0
290
     0
176
     0
290
     1
176
     0
290
     1
176
     0
290
     0
176
     0
290
     0
176
     0
290
     0
176
     0
290
     0
176
     0
290
     0
176
     0
290
     0
176
     0
 90
       50
176
     0
 40
0.0
176
     0
 40
1.0
176
     0
 90
        0
176
     0
 62
    18
420
        0
176
     0
 90
       50
176
     0
 90
        3
176
     0
 62
     5
420
      255
176
     0
290
     0
176
     0
 90
       50
176
     0
 90
       50
176
     0
 90
       50
176
     0
290
     0
176
     0
 90
       50
176
     0
 62
   256
176
     0
 40
1.0
176
     0
 90
        2
176
     0
  1
strokes_ogs.tif
176
     0
290
     0
176
     0
 40
1.0
176
     0
 40
1.0
176
     0
  0
VISUALSTYLE
  5
127
102
{ACAD_REACTORS
330
11E
102
}
330
11E
100
AcDbVisualStyle
  2
Realistic
 70
     8
177
     3
291
     0
 70
    58
 90
        2
176
     1
 90
        3
176
     1
 90
        0
176
     1
 90
        2
176
     1
 40
0.6
176
     1
 40
30.0
176
     1
 62
     7
420
 16777215
176
     1
 90
        0
176
     1
 90
        0
176
     1
 62
     7
176
     1
 62
   257
176
     1
 90
        1
176
     1
 90
        1
176
     1
 40
1.0
176
     1
 90
        8
176
     1
 62
   257
176
     1
 40
1.0
176
     1
 90
        1
176
     1
 90
        6
176
     1
 90
        2
176
     1
 62
     7
176
     1
 90
        3
176
     1
 90
        0
176
     1
 90
        0
176
     1
290
     0
176
     1
 90
       13
176
     1
 40
0.0
176
     1
 90
        0
176
     1
290
     0
176
     1
290
     1
176
     1
290
     1
176
     1
290
     0
176
     1
290
     0
176
     1
290
     0
176
     1
290
     0
176
     1
290
     0
176
     1
290
     0
176
     1
 90
       50
176
     1
 40
0.0
176
     1
 40
1.0
176
     1
 90
        0
176
     1
 62
    18
420
        0
176
     1
 90
       50
176
     1
 90
        3
176
     1
 62
     5
420
      255
176
     1
290
     0
176
     1
 90
       50
176
     1
 90
       50
176
     1
 90
       50
176
     1
290
     0
176
     1
 90
       50
176
     1
 62
   256
176
     0
 40
1.0
176
     0
 90
        2
176
     1
  1
strokes_ogs.tif
176
     1
290
     0
176
     1
 40
1.0
176
     1
 40
1.0
176
     1
  0
VISUALSTYLE
  5
136
102
{ACAD_REACTORS
330
11E
102
}
330
11E
100
AcDbVisualStyle
  2
Shaded
 70
    27
177
     3
291
     0
 70
    58
 90
        2
176
     1
 90
        2
176
     1
 90
        1
176
     1
 90
        2
176
     1
 40
0.6
176
     1
 40
30.0
176
     1
 62
     7
420
 16777215
176
     1
 90
        0
176
     1
 90
        4
176
     1
 62
     7
176
     1
 62
   257
176
     1
 90
        1
176
     1
 90
        1
176
     1
 40
1.0
176
     1
 90
        8
176
     1
 62
   257
176
     1
 40
1.0
176
     1
 90
        1
176
     1
 90
        6
176
     1
 90
        2
176
     1
 62
     8
420
  7895160
176
     1
 90
        3
176
     1
 90
        0
176
     1
 90
        0
176
     1
290
     0
176
     1
 90
        5
176
     1
 40
0.0
176
     1
 90
        0
176
     1
290
     0
176
     1
290
     1
176
     1
290
     1
176
     1
290
     0
176
     1
290
     0
176
     1
290
     0
176
     1
290
     0
176
     1
290
     0
176
     1
290
     0
176
     1
 90
       50
176
     1
 40
0.0
176
     1
 40
1.0
176
     1
 90
        0
176
     1
 62
    18
420
        0
176
     1
 90
       50
176
     1
 90
        3
176
     1
 62
     5
420
      255
176
     1
290
     0
176
     1
 90
       50
176
     1
 90
       50
176
     1
 90
       50
176
     1
290
     0
176
     1
 90
       50
176
     1
 62
   256
176
     0
 40
1.0
176
     0
 90
        2
176
     1
  1
strokes_ogs.tif
176
     1
290
     0
176
     1
 40
1.0
176
     1
 40
1.0
176
     1
  0
VISUALSTYLE
  5
135
102
{ACAD_REACTORS
330
11E
102
}
330
11E
100
AcDbVisualStyle
  2
Shaded with edges
 70
    26
177
     3
291
     0
 70
    58
 90
        2
176
     1
 90
        2
176
     1
 90
        1
176
     1
 90
        2
176
     1
 40
0.6
176
     1
 40
30.0
176
     1
 62
     7
420
 16777215
176
     1
 90
        1
176
     1
 90
       10
176
     1
 62
     7
176
     1
 62
   257
176
     1
 90
        2
176
     1
 90
        1
176
     1
 40
1.0
176
     1
 90
        8
176
     1
 62
   257
176
     1
 40
1.0
176
     1
 90
        1
176
     1
 90
        6
176
     1
 90
        2
176
     1
 62
     7
176
     1
 90
        3
176
     1
 90
        0
176
     1
 90
        0
176
     1
290
     0
176
     1
 90
        5
176
     1
 40
0.0
176
     1
 90
        0
176
     1
290
     0
176
     1
290
     1
176
     1
290
     1
176
     1
290
     0
176
     1
290
     0
176
     1
290
     0
176
     1
290
     0
176
     1
290
     0
176
     1
290
     0
176
     1
 90
       50
176
     1
 40
0.0
176
     1
 40
1.0
176
     1
 90
        0
176
     1
 62
    18
420
        0
176
     1
 90
       50
176
     1
 90
        3
176
     1
 62
     5
420
      255
176
     1
290
     0
176
     1
 90
       50
176
     1
 90
       50
176
     1
 90
       50
176
     1
290
     0
176
     1
 90
       50
176
     1
 62
   256
176
     0
 40
1.0
176
     0
 90
        2
176
     1
  1
strokes_ogs.tif
176
     1
290
     0
176
     1
 40
1.0
176
     1
 40
1.0
176
     1
  0
VISUALSTYLE
  5
132
102
{ACAD_REACTORS
330
11E
102
}
330
11E
100
AcDbVisualStyle
  2
Shades of Gray
 70
    23
177
     3
291
     0
 70
    58
 90
        2
176
     1
 90
        2
176
     1
 90
        3
176
     1
 90
        0
176
     1
 40
0.6
176
     1
 40
30.0
176
     1
 62
     7
420
 16777215
176
     1
 90
        2
176
     1
 90
        2
176
     1
 62
     7
176
     1
 62
     7
176
     1
 90
        1
176
     1
 90
        1
176
     1
 40
40.0
176
     1
 90
        8
176
     1
 62
     7
176
     1
 40
1.0
176
     1
 90
        1
176
     1
 90
        6
176
     1
 90
        2
176
     1
 62
     7
176
     1
 90
        3
176
     1
 90
        0
176
     1
 90
        0
176
     1
290
     0
176
     1
 90
        1
176
     1
 40
0.0
176
     1
 90
        0
176
     1
290
     0
176
     1
290
     1
176
     1
290
     1
176
     1
290
     0
176
     1
290
     0
176
     1
290
     0
176
     1
290
     0
176
     1
290
     0
176
     1
290
     0
176
     1
 90
       50
176
     1
 40
0.0
176
     1
 40
1.0
176
     1
 90
        0
176
     1
 62
    18
420
        0
176
     1
 90
       50
176
     1
 90
        3
176
     1
 62
     5
420
      255
176
     1
290
     0
176
     1
 90
       50
176
     1
 90
       50
176
     1
 90
       50
176
     1
290
     0
176
     1
 90
       50
176
     1
 62
   256
176
     0
 40
1.0
176
     0
 90
        2
176
     1
  1
strokes_ogs.tif
176
     1
290
     0
176
     1
 40
1.0
176
     1
 40
1.0
176
     1
  0
VISUALSTYLE
  5
133
102
{ACAD_REACTORS
330
11E
102
}
330
11E
100
AcDbVisualStyle
  2
Sketchy
 70
    24
177
     3
291
     0
 70
    58
 90
        1
176
     1
 90
        2
176
     1
 90
        2
176
     1
 90
        0
176
     1
 40
0.6
176
     1
 40
30.0
176
     1
 62
     7
420
 16777215
176
     1
 90
        2
176
     1
 90
        2
176
     1
 62
     7
176
     1
 62
     7
176
     1
 90
        1
176
     1
 90
        1
176
     1
 40
40.0
176
     1
 90
       11
176
     1
 62
     7
176
     1
 40
1.0
176
     1
 90
        1
176
     1
 90
        6
176
     1
 90
        2
176
     1
 62
     7
176
     1
 90
        6
176
     1
 90
        0
176
     1
 90
        0
176
     1
290
     0
176
     1
 90
        1
176
     1
 40
0.0
176
     1
 90
        0
176
     1
290
     0
176
     1
290
     1
176
     1
290
     1
176
     1
290
     0
176
     1
290
     0
176
     1
290
     0
176
     1
290
     0
176
     1
290
     0
176
     1
290
     0
176
     1
 90
       50
176
     1
 40
0.0
176
     1
 40
1.0
176
     1
 90
        0
176
     1
 62
    18
420
        0
176
     1
 90
       50
176
     1
 90
        3
176
     1
 62
     5
420
      255
176
     1
290
     0
176
     1
 90
       50
176
     1
 90
       50
176
     1
 90
       50
176
     1
290
     0
176
     1
 90
       50
176
     1
 62
   256
176
     0
 40
1.0
176
     0
 90
        2
176
     1
  1
strokes_ogs.tif
176
     1
290
     0
176
     1
 40
1.0
176
     1
 40
1.0
176
     1
  0
VISUALSTYLE
  5
12B
102
{ACAD_REACTORS
330
11E
102
}
330
11E
100
AcDbVisualStyle
  2
Thicken
 70
    13
177
     3
291
     1
 70
    58
 90
        2
176
     1
 90
        2
176
     1
 90
        0
176
     1
 90
        0
176
     1
 40
0.6
176
     1
 40
30.0
176
     1
 62
     7
420
 16777215
176
     1
 90
        1
176
     1
 90
        4
176
     1
 62
     7
176
     1
 62
   257
176
     1
 90
        1
176
     1
 90
        1
176
     1
 40
1.0
176
     1
 90
       12
176
     1
 62
     7
176
     1
 40
1.0
176
     1
 90
        1
176
     1
 90
        6
176
     1
 90
        2
176
     1
 62
     7
176
     1
 90
        5
176
     1
 90
        0
176
     1
 90
        0
176
     1
290
     0
176
     1
 90
        1
176
     1
 40
0.0
176
     1
 90
        0
176
     1
290
     0
176
     1
290
     1
176
     1
290
     1
176
     1
290
     0
176
     1
290
     0
176
     1
290
     0
176
     1
290
     0
176
     1
290
     0
176
     1
290
     0
176
     1
 90
       50
176
     1
 40
0.0
176
     1
 40
1.0
176
     1
 90
        0
176
     1
 62
    18
420
        0
176
     1
 90
       50
176
     1
 90
        3
176
     1
 62
     5
420
      255
176
     1
290
     0
176
     1
 90
       50
176
     1
 90
       50
176
     1
 90
       50
176
     1
290
     0
176
     1
 90
       50
176
     1
 62
   256
176
     0
 40
1.0
176
     0
 90
        2
176
     1
  1
strokes_ogs.tif
176
     1
290
     0
176
     1
 40
1.0
176
     1
 40
1.0
176
     1
  0
VISUALSTYLE
  5
124
102
{ACAD_REACTORS
330
11E
102
}
330
11E
100
AcDbVisualStyle
  2
Wireframe
 70
     5
177
     3
291
     0
 70
    58
 90
        0
176
     1
 90
        2
176
     1
 90
        0
176
     1
 90
        0
176
     1
 40
0.6
176
     1
 40
30.0
176
     1
 62
     7
420
 16777215
176
     1
 90
        1
176
     1
 90
        4
176
     1
 62
     7
176
     1
 62
   257
176
     1
 90
        1
176
     1
 90
        1
176
     1
 40
1.0
176
     1
 90
        0
176
     1
 62
   257
176
     1
 40
1.0
176
     1
 90
        1
176
     1
 90
        6
176
     1
 90
        2
176
     1
 62
     7
176
     1
 90
        3
176
     1
 90
        0
176
     1
 90
        0
176
     1
290
     0
176
     1
 90
        1
176
     1
 40
0.0
176
     1
 90
        0
176
     1
290
     0
176
     1
290
     1
176
     1
290
     1
176
     1
290
     0
176
     1
290
     0
176
     1
290
     0
176
     1
290
     0
176
     1
290
     0
176
     1
290
     0
176
     1
 90
       50
176
     1
 40
0.0
176
     1
 40
1.0
176
     1
 90
        0
176
     1
 62
    18
420
        0
176
     1
 90
       50
176
     1
 90
        3
176
     1
 62
     5
420
      255
176
     1
290
     0
176
     1
 90
       50
176
     1
 90
       50
176
     1
 90
       50
176
     1
290
     0
176
     1
 90
       50
176
     1
 62
   256
176
     0
 40
1.0
176
     0
 90
        2
176
     1
  1
strokes_ogs.tif
176
     1
290
     0
176
     1
 40
1.0
176
     1
 40
1.0
176
     1
  0
VISUALSTYLE
  5
134
102
{ACAD_REACTORS
330
11E
102
}
330
11E
100
AcDbVisualStyle
  2
X-Ray
 70
    25
177
     3
291
     0
 70
    58
 90
        2
176
     1
 90
        2
176
     1
 90
        1
176
     1
 90
        1
176
     1
 40
0.5
176
     1
 40
30.0
176
     1
 62
     7
420
 16777215
176
     1
 90
        1
176
     1
 90
        0
176
     1
 62
     7
176
     1
 62
   257
176
     1
 90
        1
176
     1
 90
        1
176
     1
 40
1.0
176
     1
 90
        8
176
     1
 62
     7
176
     1
 40
1.0
176
     1
 90
        1
176
     1
 90
        6
176
     1
 90
        2
176
     1
 62
     7
176
     1
 90
        3
176
     1
 90
        0
176
     1
 90
        0
176
     1
290
     0
176
     1
 90
       13
176
     1
 40
0.0
176
     1
 90
        0
176
     1
290
     0
176
     1
290
     1
176
     1
290
     1
176
     1
290
     0
176
     1
290
     0
176
     1
290
     0
176
     1
290
     0
176
     1
290
     0
176
     1
290
     0
176
     1
 90
       50
176
     1
 40
0.0
176
     1
 40
1.0
176
     1
 90
        0
176
     1
 62
    18
420
        0
176
     1
 90
       50
176
     1
 90
        3
176
     1
 62
     5
420
      255
176
     1
290
     0
176
     1
 90
       50
176
     1
 90
       50
176
     1
 90
       50
176
     1
290
     0
176
     1
 90
       50
176
     1
 62
   256
176
     0
 40
1.0
176
     0
 90
        2
176
     1
  1
strokes_ogs.tif
176
     1
290
     0
176
     1
 40
1.0
176
     1
 40
1.0
176
     1
  0
DICTIONARYVAR
  5
1DD
102
{ACAD_REACTORS
330
1DC
102
}
330
1DC
100
DictionaryVariables
280
     0
  1
1:1
  0
DICTIONARYVAR
  5
1E2
102
{ACAD_REACTORS
330
1DC
102
}
330
1DC
100
DictionaryVariables
280
     0
  1
Standard
  0
DICTIONARYVAR
  5
1E1
102
{ACAD_REACTORS
330
1DC
102
}
330
1DC
100
DictionaryVariables
280
     0
  1
Standard
  0
XRECORD
  5
155
102
{ACAD_REACTORS
330
153
102
}
330
153
100
AcDbXrecord
280
     1
1000
#ffffff
  0
XRECORD
  5
156
102
{ACAD_REACTORS
330
153
102
}
330
153
100
AcDbXrecord
280
     1
1000
FullColor
  0
XRECORD
  5
157
102
{ACAD_REACTORS
330
153
102
}
330
153
100
AcDbXrecord
280
     1
290
     1
  0
XRECORD
  5
158
102
{ACAD_REACTORS
330
153
102
}
330
153
100
AcDbXrecord
280
     1
290
     1
  0
XRECORD
  5
159
102
{ACAD_REACTORS
330
153
102
}
330
153
100
AcDbXrecord
280
     1
290
     1
  0
XRECORD
  5
15A
102
{ACAD_REACTORS
330
153
102
}
330
153
100
AcDbXrecord
280
     1
290
     1
  0
XRECORD
  5
15B
102
{ACAD_REACTORS
330
153
102
}
330
153
100
AcDbXrecord
280
     1
1000
auto
  0
XRECORD
  5
15C
102
{ACAD_REACTORS
330
153
102
}
330
153
100
AcDbXrecord
280
     1
1000
auto
  0
XRECORD
  5
15D
102
{ACAD_REACTORS
330
153
102
}
330
153
100
AcDbXrecord
280
     1
1000
auto
  0
XRECORD
  5
15E
102
{ACAD_REACTORS
330
153
102
}
330
153
100
AcDbXrecord
280
     1
1000
auto
  0
XRECORD
  5
15F
102
{ACAD_REACTORS
330
153
102
}
330
153
100
AcDbXrecord
280
     1
1000
auto
  0
XRECORD
  5
160
102
{ACAD_REACTORS
330
153
102
}
330
153
100
AcDbXrecord
280
     1
1000
auto
  0
XRECORD
  5
161
102
{ACAD_REACTORS
330
153
102
}
330
153
100
AcDbXrecord
280
     1
1000
auto
  0
XRECORD
  5
162
102
{ACAD_REACTORS
330
153
102
}
330
153
100
AcDbXrecord
280
     1
1000
auto
  0
XRECORD
  5
163
102
{ACAD_REACTORS
330
153
102
}
330
153
100
AcDbXrecord
280
     1
290
     0
  0
XRECORD
  5
164
102
{ACAD_REACTORS
330
153
102
}
330
153
100
AcDbXrecord
280
     1
290
     0
  0
XRECORD
  5
165
102
{ACAD_REACTORS
330
153
102
}
330
153
100
AcDbXrecord
280
     1
290
     0
  0
XRECORD
  5
166
102
{ACAD_REACTORS
330
153
102
}
330
153
100
AcDbXrecord
280
     1
290
     0
  0
XRECORD
  5
167
102
{ACAD_REACTORS
330
153
102
}
330
153
100
AcDbXrecord
280
     1
 90
    65537
  0
XRECORD
  5
168
102
{ACAD_REACTORS
330
153
102
}
330
153
100
AcDbXrecord
280
     1
 90
    65537
  0
XRECORD
  5
169
102
{ACAD_REACTORS
330
153
102
}
330
153
100
AcDbXrecord
280
     1
 90
    65537
  0
XRECORD
  5
16A
102
{ACAD_REACTORS
330
153
102
}
330
153
100
AcDbXrecord
280
     1
 90
    65537
  0
XRECORD
  5
16B
102
{ACAD_REACTORS
330
153
102
}
330
153
100
AcDbXrecord
280
     1
1000
auto
  0
XRECORD
  5
16C
102
{ACAD_REACTORS
330
153
102
}
330
153
100
AcDbXrecord
280
     1
1000
auto
  0
XRECORD
  5
16D
102
{ACAD_REACTORS
330
153
102
}
330
153
100
AcDbXrecord
280
     1
1000
auto
  0
XRECORD
  5
16E
102
{ACAD_REACTORS
330
153
102
}
330
153
100
AcDbXrecord
280
     1
1000
auto
  0
XRECORD
  5
16F
102
{ACAD_REACTORS
330
153
102
}
330
153
100
AcDbXrecord
280
     1
1000
auto
  0
XRECORD
  5
170
102
{ACAD_REACTORS
330
153
102
}
330
153
100
AcDbXrecord
280
     1
1000
auto
  0
XRECORD
  5
171
102
{ACAD_REACTORS
330
153
102
}
330
153
100
AcDbXrecord
280
     1
1000
auto
  0
XRECORD
  5
172
102
{ACAD_REACTORS
330
153
102
}
330
153
100
AcDbXrecord
280
     1
1000
auto
  0
XRECORD
  5
173
102
{ACAD_REACTORS
330
153
102
}
330
153
100
AcDbXrecord
280
     1
 90
        1
  0
XRECORD
  5
174
102
{ACAD_REACTORS
330
153
102
}
330
153
100
AcDbXrecord
280
     1
 40
0.5
  0
XRECORD
  5
175
102
{ACAD_REACTORS
330
153
102
}
330
153
100
AcDbXrecord
280
     1
 40
0.5
  0
XRECORD
  5
176
102
{ACAD_REACTORS
330
153
102
}
330
153
100
AcDbXrecord
280
     1
 40
0.5
  0
XRECORD
  5
177
102
{ACAD_REACTORS
330
153
102
}
330
153
100
AcDbXrecord
280
     1
 40
0.5
  0
XRECORD
  5
178
102
{ACAD_REACTORS
330
153
102
}
330
153
100
AcDbXrecord
280
     1
290
     0
  0
XRECORD
  5
179
102
{ACAD_REACTORS
330
153
102
}
330
153
100
AcDbXrecord
280
     1
 90
        1
  0
XRECORD
  5
17A
102
{ACAD_REACTORS
330
153
102
}
330
153
100
AcDbXrecord
280
     1
 40
0.0
  0
XRECORD
  5
17B
102
{ACAD_REACTORS
330
153
102
}
330
153
100
AcDbXrecord
280
     1
 40
0.0
  0
XRECORD
  5
17C
102
{ACAD_REACTORS
330
153
102
}
330
153
100
AcDbXrecord
280
     1
1000
Portrait
  0
XRECORD
  5
17D
102
{ACAD_REACTORS
330
153
102
}
330
153
100
AcDbXrecord
280
     1
 40
11.0
  0
XRECORD
  5
17E
102
{ACAD_REACTORS
330
153
102
}
330
153
100
AcDbXrecord
280
     1
 40
8.5
  0
XRECORD
  5
17F
102
{ACAD_REACTORS
330
153
102
}
330
153
100
AcDbXrecord
280
     1
1000
1:1
  0
XRECORD
  5
180
102
{ACAD_REACTORS
330
153
102
}
330
153
100
AcDbXrecord
280
     1
290
     1
  0
XRECORD
  5
181
102
{ACAD_REACTORS
330
153
102
}
330
153
100
AcDbXrecord
280
     1
290
     0
  0
XRECORD
  5
182
102
{ACAD_REACTORS
330
153
102
}
330
153
100
AcDbXrecord
280
     1
1000
Inside
  0
XRECORD
  5
183
102
{ACAD_REACTORS
330
153
102
}
330
153
100
AcDbXrecord
280
     1
1000
Arial,10,-1,5,50,0,0,0,0,0
  0
XRECORD
  5
184
102
{ACAD_REACTORS
330
153
102
}
330
153
100
AcDbXrecord
280
     1
1000
TopLeft
  0
XRECORD
  5
185
102
{ACAD_REACTORS
330
153
102
}
330
153
100
AcDbXrecord
280
     1
1000
3.27.6
  0
XRECORD
  5
186
102
{ACAD_REACTORS
330
153
102
}
330
153
100
AcDbXrecord
280
     1
 90
        1
  0
XRECORD
  5
187
102
{ACAD_REACTORS
330
153
102
}
330
153
100
AcDbXrecord
280
     1
  0
XRECORD
  5
188
102
{ACAD_REACTORS
330
153
102
}
330
153
100
AcDbXrecord
280
     1
 40
12.43418592194312
  0
XRECORD
  5
189
102
{ACAD_REACTORS
330
153
102
}
330
153
100
AcDbXrecord
280
     1
 40
24.099246941498
  0
DICTIONARY
  5
1DE
330
14E
100
AcDbDictionary
280
     1
281
     1
  3
ACAD_ROUNDTRIP_2008_TABLESTYLE_CELLSTYLEMAP
360
1DF
  0
CELLSTYLEMAP
  5
1DF
102
{ACAD_REACTORS
330
1DE
102
}
330
1DE
100
AcDbCellStyleMap
 90
        3
300
CELLSTYLE
  1
TABLEFORMAT_BEGIN
 90
        5
170
     1
 91
        0
 92
    32768
 62
   257
 93
        1
300
CONTENTFORMAT
  1
CONTENTFORMAT_BEGIN
 90
        0
 91
        0
 92
        4
 93
        0
300

 40
0.0
140
1.0
 94
        5
 62
     0
340
106
144
0.25
309
CONTENTFORMAT_END
171
     1
301
MARGIN
  1
CELLMARGIN_BEGIN
 40
0.06
 40
0.06
 40
0.06
 40
0.06
 40
0.06
 40
0.06
309
CELLMARGIN_END
 94
        6
 95
        1
302
GRIDFORMAT
  1
GRIDFORMAT_BEGIN
 90
        0
 91
        1
 62
     0
 92
       -2
340
108
 93
        0
 40
0.045
309
GRIDFORMAT_END
 95
        2
302
GRIDFORMAT
  1
GRIDFORMAT_BEGIN
 90
        0
 91
        1
 62
     0
 92
       -2
340
108
 93
        0
 40
0.045
309
GRIDFORMAT_END
 95
        4
302
GRIDFORMAT
  1
GRIDFORMAT_BEGIN
 90
        0
 91
        1
 62
     0
 92
       -2
340
108
 93
        0
 40
0.045
309
GRIDFORMAT_END
 95
        8
302
GRIDFORMAT
  1
GRIDFORMAT_BEGIN
 90
        0
 91
        1
 62
     0
 92
       -2
340
108
 93
        0
 40
0.045
309
GRIDFORMAT_END
 95
       16
302
GRIDFORMAT
  1
GRIDFORMAT_BEGIN
 90
        0
 91
        1
 62
     0
 92
       -2
340
108
 93
        0
 40
0.045
309
GRIDFORMAT_END
 95
       32
302
GRIDFORMAT
  1
GRIDFORMAT_BEGIN
 90
        0
 91
        1
 62
     0
 92
       -2
340
108
 93
        0
 40
0.045
309
GRIDFORMAT_END
309
TABLEFORMAT_END
  1
CELLSTYLE_BEGIN
 90
        1
 91
        1
300
_TITLE
309
CELLSTYLE_END
300
CELLSTYLE
  1
TABLEFORMAT_BEGIN
 90
        5
170
     1
 91
        0
 92
        0
 62
   257
 93
        1
300
CONTENTFORMAT
  1
CONTENTFORMAT_BEGIN
 90
        0
 91
        0
 92
        4
 93
        0
300

 40
0.0
140
1.0
 94
        5
 62
     0
340
106
144
0.18
309
CONTENTFORMAT_END
171
     1
301
MARGIN
  1
CELLMARGIN_BEGIN
 40
0.06
 40
0.06
 40
0.06
 40
0.06
 40
0.06
 40
0.06
309
CELLMARGIN_END
 94
        6
 95
        1
302
GRIDFORMAT
  1
GRIDFORMAT_BEGIN
 90
        0
 91
        1
 62
     0
 92
       -2
340
108
 93
        0
 40
0.045
309
GRIDFORMAT_END
 95
        2
302
GRIDFORMAT
  1
GRIDFORMAT_BEGIN
 90
        0
 91
        1
 62
     0
 92
       -2
340
108
 93
        0
 40
0.045
309
GRIDFORMAT_END
 95
        4
302
GRIDFORMAT
  1
GRIDFORMAT_BEGIN
 90
        0
 91
        1
 62
     0
 92
       -2
340
108
 93
        0
 40
0.045
309
GRIDFORMAT_END
 95
        8
302
GRIDFORMAT
  1
GRIDFORMAT_BEGIN
 90
        0
 91
        1
 62
     0
 92
       -2
340
108
 93
        0
 40
0.045
309
GRIDFORMAT_END
 95
       16
302
GRIDFORMAT
  1
GRIDFORMAT_BEGIN
 90
        0
 91
        1
 62
     0
 92
       -2
340
108
 93
        0
 40
0.045
309
GRIDFORMAT_END
 95
       32
302
GRIDFORMAT
  1
GRIDFORMAT_BEGIN
 90
        0
 91
        1
 62
     0
 92
       -2
340
108
 93
        0
 40
0.045
309
GRIDFORMAT_END
309
TABLEFORMAT_END
  1
CELLSTYLE_BEGIN
 90
        2
 91
        1
300
_HEADER
309
CELLSTYLE_END
300
CELLSTYLE
  1
TABLEFORMAT_BEGIN
 90
        5
170
     1
 91
        0
 92
        0
 62
   257
 93
        1
300
CONTENTFORMAT
  1
CONTENTFORMAT_BEGIN
 90
        0
 91
        0
 92
        4
 93
        0
300

 40
0.0
140
1.0
 94
        2
 62
     0
340
106
144
0.18
309
CONTENTFORMAT_END
171
     1
301
MARGIN
  1
CELLMARGIN_BEGIN
 40
0.06
 40
0.06
 40
0.06
 40
0.06
 40
0.06
 40
0.06
309
CELLMARGIN_END
 94
        6
 95
        1
302
GRIDFORMAT
  1
GRIDFORMAT_BEGIN
 90
        0
 91
        1
 62
     0
 92
       -2
340
108
 93
        0
 40
0.045
309
GRIDFORMAT_END
 95
        2
302
GRIDFORMAT
  1
GRIDFORMAT_BEGIN
 90
        0
 91
        1
 62
     0
 92
       -2
340
108
 93
        0
 40
0.045
309
GRIDFORMAT_END
 95
        4
302
GRIDFORMAT
  1
GRIDFORMAT_BEGIN
 90
        0
 91
        1
 62
     0
 92
       -2
340
108
 93
        0
 40
0.045
309
GRIDFORMAT_END
 95
        8
302
GRIDFORMAT
  1
GRIDFORMAT_BEGIN
 90
        0
 91
        1
 62
     0
 92
       -2
340
108
 93
        0
 40
0.045
309
GRIDFORMAT_END
 95
       16
302
GRIDFORMAT
  1
GRIDFORMAT_BEGIN
 90
        0
 91
        1
 62
     0
 92
       -2
340
108
 93
        0
 40
0.045
309
GRIDFORMAT_END
 95
       32
302
GRIDFORMAT
  1
GRIDFORMAT_BEGIN
 90
        0
 91
        1
 62
     0
 92
       -2
340
108
 93
        0
 40
0.045
309
GRIDFORMAT_END
309
TABLEFORMAT_END
  1
CELLSTYLE_BEGIN
 90
        3
 91
        2
300
_DATA
309
CELLSTYLE_END
  0
ENDSEC
  0
EOF
